Cifra Club

Fluorescent Black

Sorority Noise

Cifra: Principal (violão e guitarra)
Selo Cifra Club: esta cifra foi revisada para atender aos critérios oficiais da nossa Equipe de Qualidade.
tom: Cm
"I felt you whimper..."
E|----------------4------------------------------12h--5h---------------------|
B|----------4--0-------9--7--5\2--2/4---5-4\1-0--12h--5h---------------------|
G|--0| 1/3-0--------------------------------------12h--5h---------------------|
D|----------------0----------------------------------------------------------|
A|---------------------5--5--5\2--2------------------------------------------|
E|----------5--5-------------------------------------------------------------|
  Repeat  x3


[Chorus]

"...I'm just an orchard..."
E|---------------------------------------------------------------------------|
B|---------------------------------------------------------------------------|
G|--0---0--------------------------------------------------------------------|
D|--0---0--------------------------------------------------------------------|
A|--0---0--------------------------------------------------------------------|
E|--4---0--------------------------------------------------------------------|
  Repeat x3

E|---------------------------------------------------------------------------|
B|---------------------------------------------------------------------------|
G|--0------------------------------------------------------------------------|
D|--0------------------------------------------------------------------------|
A|--0------------------------------------------------------------------------|
E|--4/12---------------------------------------------------------------------|


[Bridge]

"...old man lying awake..."
E|------4--------------------------------------------------------------------|
B|--4-0-0--9-7-5-2/4--5-4\1-0---12h--5h--7h----------------------------------|
G|--0-0-0--0-0-0-0--------------12h--5h--7h----------------------------------|
D|--0-0-0--0-0-0-0--------------12h--5h--7h----------------------------------|
A|--0-0-0--5-5-5-2-----------------------------------------------------------|
E|--5-5-5--------------------------------------------------------------------|

..."I am the night sky..."
E|---------------4-----------------------------------------------------------|
B|--0-1/3-0--4-0-0--9-7-5-2/4--5-4\1-0--12h--5h--7h--------------------------|
G|--0-0---0--0-0-0--0-0-0-0-------------12h--5h--7h--------------------------|
D|--0-0---0--0-0-0--0-0-0-0-------------12h--5h--7h--------------------------|
A|--0-0---0--0-0-0--5-5-5-2--------------------------------------------------|
E|--0-0---0--5-5-5-----------------------------------------------------------|


[Outro]

E|-----------------4-------------------------------12h-----------------------|
B|-----------4--0-----9--7--5\2--2/4--5-4\1-0--7h----------------------------|
G|--0-1/3-0------------------------------------------------------------------|
D|-----------------0---------------------------------------------------------|
A|--------------------5--5--5\2--2-------------------------------------------|
E|-----------5--5------------------------------------------------------------|



[Verse]
I felt you whimper, and I felt you shake
Collapse in my lungs, and I felt your shape
I was a boathouse, alone on a lake
Clear in my thoughts, an emptying fate
You were like water, drown in my eyes
Breathe in my voice, with each one I take

[Chorus]
I'm just an orchard in the late winter months
And you're just a harsh wind that blows me away
I feel you break with every night that you lie awake

[Bridge]
I was an old man, lying awake
Widowed in bed, at my own wake
I am the night sky, closing my eyes
Counting the stars, that you see in mine
Outros vídeos desta música
    12 exibições
      • ½ Tom
      • Am
      • Bbm
      • Bm
      • Cm
      • C#m
      • Dm
      • Ebm
      • Em
      • Fm
      • F#m
      • Gm
      • G#m
    • Adicionar à lista

    Afinação da cifra

    Afinador online

      0 comentários

      Ver todos os comentários

      Entre para o Cifra Club PRO

      Tenha acesso a benefícios exclusivos no App e no Site

      • Chega de anúncios

      • Badges exclusivas

      • Mais recursos no app do Afinador

      • Atendimento Prioritário

      • Aumente seu limite de lista

      • Ajude a produzir mais conteúdo

      Cifra Club Pro

      Aproveite o Cifra Club com benefícios exclusivos e sem anúncios
      Cifra Club Pro
      Aproveite o Cifra Club com benefícios exclusivos e sem anúncios
      Ops (: Contenido disponible sólo en portugués.
      OK