Cifra Club

Jessies Girl

Rick Springfield

Cifra: Versão 3 (violão e guitarra)
Selo Cifra Club: esta cifra foi revisada para atender aos critérios oficiais da nossa Equipe de Qualidade.
tom: C
Jessie’s Girl





e|---------------------------------------------------------------|
B|---------------------------------------------------------------|
G|---------------------------------------------------------------|
D|--7---7----------------------------7--5------------------------|
A|--5---5--7--7--9--9----5--5--7--7--5--5------------------------|
E|---------5--5--7--7----3--3--5--5------------------------------|

e|---------------------------------------------------------------|
B|---------------------------------------------------------------|
G|---------------------------------------------------------------|
A|--5--5--7--7--9--9------5---5--7--7--5--5----------------------|
E|--------5--5--7--7------3---3--5--5----------------------------|

e|---------------------------------------------------------------|
B|---------------------------------------------------------------|
G|---------------------------------------------------------------|
D|--7----7------------------------------7--7---------------------|
A|--5----5--7--7--9--9------5---5--7--7-5--5---------------------|
E|----------5--5--7--7------3---3--5--5--------------------------|

e|---------------------------------------------------------------|
B|---------------------------------------------------------------|
G|---------------------------------------------------------------|
D|--7----7------------------------------7--7---------------------|
A|--5----5--7--7--9--9------5---5--7--7-5--5---------------------|
E|----------5--5--7--7------3---3--5--5--------------------------|

e|---------------------------------------------------------------|
B|---------------------------------------------------------------|
G|---------------------------------------------------------------|
D|--7----7------------------------------7--7---------------------|
A|--5----5--7--7--9--9------5---5--7--7-5--5---------------------|
E|----------5--5--7--7------3---3--5--5--------------------------|

e|---------------------------------------------------------------|
B|---------------------------------------------------------------|
G|---------------------------------------------------------------|
D|--7----7------------------------------7--7---------------------|
A|--5----5--7--7--9--9------5---5--7--7-5--5---------------------|
E|----------5--5--7--7------3---3--5--5--------------------------|

e|---------------------------------------------------------------|
B|---------------------------------------------------------------|
G|---------------------------------------------------------------|
D|--7----7------------------------------7--7---------------------|
A|--5----5--7--7--9--9------5---5--7--7-5--5---------------------|
E|----------5--5--7--7------3---3--5--5--------------------------|

e|---------------------------------------------------------------|
B|---------------------------------------------------------------|
G|---------------------------------------------------------------|
D|--7----7------------------------------7--7---------------------|
A|--5----5--7--7--9--9------5---5--7--7-5--5---------------------|
E|----------5--5--7--7------3---3--5--5--------------------------|

e|---------------------------------------------------------------|
B|---------------------------------------------------------------|
G|---------------------------------------------------------------|
D|--7----7------------------------------7--7\--------------------|
A|--5----5--7--7--9--9------5---5--7--7-5--5\--------------------|
E|----------5--5--7--7------3---3--5--5--------------------------|

e|---------------------------------------------------------------|
B|---------------------------------------------------------------|
G|---------------------------------------------------------------|
D|--------------------------------7---7---7----------------------|
A|-7--7--7--7--7--7--7--7--7--7---5---5---5----------------------|
E|-5--5--5--5--5--5--5--5--5--5----------------------------------|

e|---------------------------------------------------------------|
B|---------------------------------------------------------------|
G|---------------------------------------------------------------|
D|--2--4--4--2---4--4--2--2---7--7--7----------------------------|
A|--0--4--4--0---2--2--0--0---5--5--5----------------------------|
E|---------------------------------------------------------------|

e|---------------------------------------------------------------|
B|---------------------------------------------------------------|
G|---------------------------------------------------------------|
D|--2--4--4--2---4--4--2---------7-------------------------------|
A|--0--2--2--0---2--2--0--5--7---5-------------------------------|
E|------------------------3--5-----------------------------------|

e|---------------------------------------------------------------|
B|---------------------------------------------------------------|
G|---------------------------------------------------------------|
D|---------------------------------------------------------------|
A|--/7--9--9--9--7--7--------------------------------------------|
E|--/5--7--7--7--5--5--------------------------------------------|

e|---------------------------------------------------------------|
B|---------------------------------------------------------------|
G|---------------------------------------------------------------|
D|--7----7------------------------------7--7---------------------|
A|--5----5--7--7--9--9------5---5--7--7-5--5---------------------|
E|----------5--5--7--7------3---3--5--5--------------------------|

e|---------------------------------------------------------------|
B|---------------------------------------------------------------|
G|---------------------------------------------------------------|
D|--7----7------------------------------7--7---------------------|
A|--5----5--7--7--9--9------5---5--7--7-5--5---------------------|
E|----------5--5--7--7------3---3--5--5--------------------------|

e|---------------------------------------------------------------|
B|---------------------------------------------------------------|
G|---------------------------------------------------------------|
D|--7----7------------------------------7--7---------------------|
A|--5----5--7--7--9--9------5---5--7--7-5--5---------------------|
E|----------5--5--7--7------3---3--5--5--------------------------|

e|---------------------------------------------------------------|
B|---------------------------------------------------------------|
G|---------------------------------------------------------------|
D|--7----7------------------------------7--7---------------------|
A|--5----5--7--7--9--9------5---5--7--7-5--5---------------------|
E|----------5--5--7--7------3---3--5--5--------------------------|

e|---------------------------------------------------------------|
B|---------------------------------------------------------------|
G|---------------------------------------------------------------|
D|--7----7------------------------------7--7---------------------|
A|--5----5--7--7--9--9------5---5--7--7-5--5---------------------|
E|----------5--5--7--7------3---3--5--5--------------------------|

e|---------------------------------------------------------------|
B|---------------------------------------------------------------|
G|---------------------------------------------------------------|
D|--7----7------------------------------7--7---------------------|
A|--5----5--7--7--9--9------5---5--7--7-5--5---------------------|
E|----------5--5--7--7------3---3--5--5--------------------------|

e|---------------------------------------------------------------|
B|---------------------------------------------------------------|
G|---------------------------------------------------------------|
D|--7---7------------------------------7--7\---------------------|
A|--5---5--7--7--9--9----5---5--7--7---5--5\---------------------|
E|---------5--5--7--7----3---3--5--5-----------------------------|

e|---------------------------------------------------------------|
B|---------------------------------------------------------------|
G|---------------------------------------------------------------|
D|--2--4--4--2--4--4--2--2--7--7--7------------------------------|
A|--0--2--2--0--2--2--0--0--5--5--5------------------------------|
E|---------------------------------------------------------------|

e|---------------------------------------------------------------|
B|---------------------------------------------------------------|
G|---------------------------------------------------------------|
D|--2--4--4--2--4--4--2--------7---------------------------------|
A|--0--2--2--0--2--2--0--5--7--5---------------------------------|
E|-----------------------3--5------------------------------------|

e|---------------------------------------------------------------|
B|---------------------------------------------------------------|
G|---------------------------------------------------------------|
D|----------------------7--7--7----------------------------------|
A|--7/9--9--9--7--7--7--5--5--5----------------------------------|
E|--5/7--7--7--5--5--5-------------------------------------------|

e|---------------------------------------------------------------|
B|---------------------------------------------------------------|
G|---------------------------------------------------------------|
D|--2--4--4--2---4--4--2--2--7--7--7-----------------------------|
A|--0--2--2--0---2--2--0--0--5--5--5-----------------------------|
E|---------------------------------------------------------------|

e|---------------------------------------------------------------|
B|---------------------------------------------------------------|
G|---------------------------------------------------------------|
D|--2--4--4--2---4---4--2---------7\-----------------------------|
A|--0--2--2--0---2---2--2---5--7--5\-----------------------------|
E|--------------------------3--5---------------------------------|

e|---------------------------------------------------------------|
B|---------------------------------------------------------------|
G|---------------------------------------------------------------|
D|--------------7--7\--------7-----------------------------------|
A|--5--5--5--7--5--5\--5--7--5-----------------------------------|
E|--3--3--3--5---------3--5--------------------------------------|

e|---------------------------------------------------------------|
B|---------------------------------------------------------------|
G|---------------------------------------------------------------|
D|---------------------------------------------------------------|
A|-/7--9--9--9---7---5-}-x87-------------------------------------|
E|-/5--7--7--7---5---3-}-x87-------------------------------------|

e|----------------------------|-2--4--4--2--4--4--2--------------|
B|----------------------------|-2--4--4--2--4--4--2--------------|
G|----------------------------|-3--4--4--3--4--4--3--------------|
D|----------------4----4----4-|-4--6--6--4--6--6--4------4--4--4-|
A|--7----------4--2----2----2-|-4--6--6--4--6--6--4---4--2--2--2-|
E|--5----------2--------------|-2--4--4--2--4--4--2---2----------|

e|-2--4--4--2--4--4--2--------------|
B|-2--4--4--2--4--4--2--------------|
G|-3--4--4--3--4--4--3--------------|
D|-4--6--6--4--6--6--4------4--4--4-|
A|-4--6--6--4--6--6--4---4--2--2--2-|
E|-2--4--4--2--4--4--2---2----------|

e|-2--4--4--2--4--4--2--------------|
B|-2--4--4--2--4--4--2--------------|
G|-3--4--4--3--4--4--3--------------|
D|-4--6--6--4--6--6--4------4--4--4-|
A|-4--6--6--4--6--6--4---4--2--2--2-|
E|-2--4--4--2--4--4--2---2----------|
 


e|-2--4--4--2--4--4--2-------------|-----------------------------|
B|-2--4--4--2--4--4--2-------------|-----------------------------|
G|-3--4--4--3--4--4--3-------------|-----------------------------|
D|-4--6--6--4--6--6--4---------7---|-----------------------------|
A|-4--6--6--4--6--6--4---5--7--5---|--/7--9--9--9--7--7----------|
E|-2--4--4--2--4--4--2---3--5------|--/5--7--7--7--5--5----------|

e|---------------------------------------------------------------|
B|---------------------------------------------------------------|
G|---------------------------------------------------------------|
D|--7----7------------------------------7--7---------------------|
A|--5----5--7--7--9--9------5---5--7--7-5--5---------------------|
E|----------5--5--7--7------3---3--5--5--------------------------|

e|---------------------------------------------------------------|
B|---------------------------------------------------------------|
G|---------------------------------------------------------------|
D|--7----7------------------------------7--7---------------------|
A|--5----5--7--7--9--9------5---5--7--7-5--5---------------------|
E|----------5--5--7--7------3---3--5--5--------------------------|

e|---------------------------------------------------------------|
B|---------------------------------------------------------------|
G|---------------------------------------------------------------|
D|--7----7------------------------------7--7---------------------|
A|--5----5--7--7--9--9------5---5--7--7-5--5---------------------|
E|----------5--5--7--7------3---3--5--5--------------------------|

e|---------------------------------------------------------------|
B|---------------------------------------------------------------|
G|---------------------------------------------------------------|
D|--7----7------------------------------7--7---------------------|
A|--5----5--7--7--9--9------5---5--7--7-5--5---------------------|
E|----------5--5--7--7------3---3--5--5--------------------------|

e|---------------------------------------------------------------|
B|---------------------------------------------------------------|
G|---------------------------------------------------------------|
D|----------7--7--7----------------------------------------------|
A|-7-}x10---5--5--5----------------------------------------------|
E|-5-}x10--------------------------------------------------------|

e|---------------------------------------------------------------|
B|---------------------------------------------------------------|
G|---------------------------------------------------------------|
D|-2--4--4--2--4--4--2--2--7--7--7-------------------------------|
A|-0--2--2--0--2--2--0--0--5--5--5-------------------------------|
E|---------------------------------------------------------------|

e|---------------------------------------------------------------|
B|---------------------------------------------------------------|
G|---------------------------------------------------------------|
D|-2--4--4--2--4--4--2--2--7--7--7-------------------------------|
A|-0--2--2--0--2--2--0--0--5--5--5-------------------------------|
E|---------------------------------------------------------------|

e|---------------------------------------------------------------|
B|---------------------------------------------------------------|
G|---------------------------------------------------------------|
D|-2--4--4--2--4--4--2--------7----------------------------------|
A|-0--2--2--0--2--2--0--5--7--5----------------------------------|
E|----------------------3--5-------------------------------------|

e|---------------------------------------------------------------|
B|---------------------------------------------------------------|
G|---------------------------------------------------------------|
D|----------------------7--7--7----------------------------------|
A|--7\9--9--9--7--7--7--5--5--5----------------------------------|
E|--7\9--7--7--5--5----------------------------------------------|

e|---------------------------------------------------------------|
B|---------------------------------------------------------------|
G|---------------------------------------------------------------|
D|-2--4--4--2--4--4--2--2--7--7--7-------------------------------|
A|-0--2--2--0--2--2--0--0--5--5--5-------------------------------|
E|---------------------------------------------------------------|

e|---------------------------------------------------------------|
B|---------------------------------------------------------------|
G|---------------------------------------------------------------|
D|-2--4--4--2--4--4--2--2--7--7--7-------------------------------|
A|-0--2--2--0--2--2--0--0--5--5--5-------------------------------|
E|---------------------------------------------------------------|

e|---------------------------------------------------------------|
B|---------------------------------------------------------------|
G|---------------------------------------------------------------|
D|-2--4--4--2--4--4--2--2-----7--7-------------------------------|
A|-0--2--2--0--2--2--0--0--7--5--5-------------------------------|
E|-------------------------5-------------------------------------|

e|------------------------------||
B|------------------------------||
G|------------------------------||
D|------7----------7------------||
A|---7--5--7--5----5------------||
E|---5-----5--3-----------------||






| /  slide up
| \  slide down












Outros vídeos desta música
    291 exibições
      • ½ Tom
      • A
      • Bb
      • B
      • C
      • Db
      • D
      • Eb
      • E
      • F
      • F#
      • G
      • Ab
    • Adicionar à lista

    Afinação da cifra

    Afinador online

      0 comentários

      Ver todos os comentários

      Entre para o Cifra Club PRO

      Tenha acesso a benefícios exclusivos no App e no Site

      • Chega de anúncios

      • Badges exclusivas

      • Mais recursos no app do Afinador

      • Atendimento Prioritário

      • Aumente seu limite de lista

      • Ajude a produzir mais conteúdo

      Cifra Club Pro

      Aproveite o Cifra Club com benefícios exclusivos e sem anúncios
      Cifra Club Pro
      Aproveite o Cifra Club com benefícios exclusivos e sem anúncios
      OK