Cifra Club

A Goodnights Sleep

The Starting Line

Cifra: Principal (violão e guitarra)
Selo Cifra Club: esta cifra foi revisada para atender aos critérios oficiais da nossa Equipe de Qualidade.
tom: A
Tuning: Standard 
 
INTRO (1st Guitar - Clean) 
----4--4--4--4--4---------------------------- 
-----5--5-----5--5--------------------------- 
---4--4--4--4--4--4-------------------------- (x6) 
----------------------------------------- 
----------------------------------------- 
----------------------------------------- 
 
Guitar 2 Intro: 
Play this chord distorted and let ring out - bass plays rhythm 
----------------------------------------- 
----------------------------------------- 
----------------------------------------- 
------2----------------------------------- 
------2----------------------------------- 
------0----------------------------------- 
 
 Main Riff (After Intro and heard faintly in chorus) - Guitar 1: 
-----4-4-5-4------------4-4-5-4---------7-7-4-4-5-4-------------------4-5-7 
------------7-5-5-5-7-5---------7-5-5-5-------------7-5-5-5-5h7p5--5/7-- 
----------------------------------------- 
----------------------------------------- 
----------------------------------------- 
----------------------------------------- 
 
Guitar 2 (Chords played underneath - Also the chorus): 
----------------------------------------- 
----------------------------------------- 
-----------6--4--2-2--------------------------- 
---2-2-4-4-6--4--2-2----------------------------- 
---2-2-4-4-4--2--0-0----------------------------- 
---0-0-2-2----------------------------------- 
(Half measure each chord) 
 
Verse (1st Guitar) 
Play this chord distorted and let ring out  
----------------------------------------- 
----------------------------------------- 
----------------------------------------- 
------2---------------------------2-------- 
------2---------------------------2-------- 
------0---------------------------0-------- 
Verse (2nd Guitar - PM): 
Play this chord distorted and let ring out - bass plays rhythm 
-------------------------------------------------------------------------------- 
--------------------------------------------------------------------------------- 
------------------6--4--2--4------------------4-4----------4-4-------4-4------4-- 
----2--2---4--4---6--4--2--4---2-2-4-4-----2-2---2-2----2-2-------2-2---2-2---4- 
----2--2---4--4---4--2--0--2---2-2-4-4--4-4----------2-2-------0-0------------2- 
----0--0---2--2----------------0-0-2-2------------------------------------------ 
 
Pre-Chorus (Sounds Right - not positive though): 
Play this chord distorted and let ring out - bass plays rhythm 
----------------------------------------- 
-------7-5-4-4--5---5-5-5------------------------ 
---------------4-4-4-4-4-4--------------------- 
----------------------------------------- 
----------------------------------------- 
----------------------------------------- 
Chorus (Written Above) 
 
Bridge: (All Bass - I think u just hit the open E chord in the beginning and let it ring out) 
 
You can figure out the progression and rhythm, etc. 
Outros vídeos desta música
    908 exibições
      • ½ Tom
      • A
      • Bb
      • B
      • C
      • Db
      • D
      • Eb
      • E
      • F
      • F#
      • G
      • Ab
    • Adicionar à lista

    Afinação da cifra

    Afinador online

      0 comentários

      Ver todos os comentários

      Entre para o Cifra Club PRO

      Tenha acesso a benefícios exclusivos no App e no Site

      • Chega de anúncios

      • Mais recursos no app do Afinador

      • Atendimento Prioritário

      • Aumente seu limite de lista

      • Ajude a produzir mais conteúdo

      Cifra Club Pro

      Aproveite o Cifra Club com benefícios exclusivos e sem anúncios
      Cifra Club Pro
      Aproveite o Cifra Club com benefícios exclusivos e sem anúncios
      OK