Cifra Club

Aprenda

The Duel From Crossroads

Steve Vai

Cifra: Principal (violão e guitarra)
tom: C
Praticamente a musica inteira é em semicolcheia os compassos que não forem eu vou avisando.

E|-----------------8-12-8---------------|
B|--------------10--------10------------|
G|------------9--------------9----------|
D|-------7-10------------------10-7-0---|
A|-----7------------------------------3-|
E|-5-8----------------------------------|

E|---------------4-7-4-------------|
B|-------------5-------5-----------|
G|---------4-7-----------7-4-------|
D|-----2-6-------------------6-2-0-|
A|-2-5-----------------------------|
E|---------------------------------|

E|-----------------5---------------|
B|-------------5-8---8-5-----------|
G|-----------6-----------6---------|
D|-------5-7---------------7-5-----|
A|-0-4-7-----------------------7-4-|
E|---------------------------------|

E|-------------5-10-13-10-5-----------|
B|-----------6--------------6---------|
G|---------7------------------7-------|
D|-------7----------------------7-0---|
A|-0-5-8----------------------------3-|
E|------------------------------------|

E|---------------4-7-4-------------|
B|-------------6-------6-----------|
G|---------4-7-----------7-4-------|
D|-----3-6-------------------6-3---|
A|-2-5---------------------------2-|
E|---------------------------------|

E|-------------------5---8-5-12-8-12-|-16...-|
B|---------------5-----5-------------|-------|
G|-------2---5-2---5-----------------|-------|
D|---2-----2-------------------------|-------|
A|-0---3-----------------------------|-------|
E|-----------------------------------|-------|

                        2x 
E|----------------------------17-15-13-------------|
B|----13-17-13----15-17-15-13----------17-15-13----|
G|-14----------16-------------------------------16-|
D|-------------------------------------------------|
A|-------------------------------------------------|
E|-------------------------------------------------|

E|-------------17-15-13----------19-17-15----------|
B|----14-17-14----------17-14-15----------18-17-15-|
G|-14----------------------------------------------|
D|-------------------------------------------------|
A|-------------------------------------------------|
E|-------------------------------------------------|

E|-------------13-12----------17-15-13-------------|
B|----12-15-12-------15-12-13----------17-15-13----|
G|-12-------------------------------------------16-|
D|-------------------------------------------------|
A|-------------------------------------------------|
E|-------------------------------------------------|

E|-------------------------------------------17----|
B|-------------18-17-15----------18-15----------16-|
G|----14-17-14----------17----16-------14-17-------|
D|-15----------------------18----------------------|
A|-------------------------------------------------|
E|-------------------------------------------------|

Essa parte também é em semicolcheia porem o compasso é 6/4 por isso é que fica maiozinho mas é assim mesmo.
E|----16-------14-------12-------10-------9------7-----5-----4---|
B|-17----17-15----15-14----14-12----12-10---10-9---9-7---7-5---5-|
G|---------------------------------------------------------------|
D|---------------------------------------------------------------|
A|---------------------------------------------------------------|
E|---------------------------------------------------------------|

                 2x
E|-7-4---0-7-4---0-7-4---0-7-4---0-|
B|-----5-------5-------5-------5---|
G|---------------------------------|
D|---------------------------------|
A|---------------------------------|
E|---------------------------------|

                     4x
E|-7-4---0-14-11----0-17-14----0-12-9----0-|
B|-----5---------12---------15--------10---|
G|-----------------------------------------|
D|-----------------------------------------|
A|-----------------------------------------|
E|-----------------------------------------|

                    2x
E|-19-16----0-7-4---0-17-14----0-5-2---0-|
B|-------17-------5---------15-------3---|
G|---------------------------------------|
D|---------------------------------------|
A|---------------------------------------|
E|---------------------------------------|

                    2x
E|-22-19----0-10-7---0-20-17----0-8-5---0-|
B|-------20--------8---------18-------6---|
G|----------------------------------------|
D|----------------------------------------|
A|----------------------------------------|
E|----------------------------------------|

E|-22-19-------19----------------------------------...
B|-------21-18----21-18----21-18-------18----------...
G|----------------------19-------19-16----19-16----...
D|----------------------------------------------18-...
A|-------------------------------------------------...
E|-------------------------------------------------...

...-------------------------------------------------|----------|
...-------------------------------------------------|----------|
...-19-16-------16----------------------------------|----------|
...-------18-15----18-15----18-15-------15----------|------2---|
...----------------------17-------17-14----17-14----|------2---|
...----------------------------------------------16-|-17---0---|

Nesse compasso as notas 
estão em colcheia  
E|----------------12---------|-24...-|
B|----------5----------------|-------|
G|-------------9-------------|-------|
D|-------2------------14-----|-------|
A|----7----------------------|-------|
E|-0----------------------0--|-------|

E|-------------------------------------...
B|-----------------------------9-10-12-...
G|----------------------7-9-10---------...
D|-------------6-7-9-10----------------...
A|-------5-7-8-------------------------...
E|-5-7-8-------------------------------...

Nesse compasso as notas 22,24,25,27 estão em colcheia
...----10-12-13-16-17-19-20-22-24-25-27-|-(29)...-|
...-13----------------------------------|---------|
...-------------------------------------|---------|
...-------------------------------------|---------|
...-------------------------------------|---------|
...-------------------------------------|---------|
16.930 exibições
    • ½ Tom
    • A
    • Bb
    • B
    • C
    • Db
    • D
    • Eb
    • E
    • F
    • F#
    • G
    • Ab
  • Adicionar à lista

    0 comentários

    Ver todos os comentários

    Conseguiu tocar?

    0 Tocaram 0 Ainda não

    Grave um vídeo tocando The Duel From Crossroads e nos envie!

    00:00 / 00:00
    outros vídeos desta música
    repetir qualidade Automático
    Outros vídeos desta música
    00:00 / 00:00
    Automático

    Cifra Club Pro

    Aproveite o Cifra Club com benefícios exclusivos e sem anúncios
    Cifra Club Pro
    Aproveite o Cifra Club com benefícios exclusivos e sem anúncios
    OK