Cifra Club

O Que Fazer Por Você

Steven Universo

Cifra: Principal (violão e guitarra)
Selo Cifra Club: esta cifra foi revisada para atender aos critérios oficiais da nossa Equipe de Qualidade.
tom: G
[Intro] D  C  C7  G

G                      Bm
Que posso fazer por você
G                      Bm                  D
Que posso fazer que ninguém mais possa fazer
G                      Bm
Que posso fazer por você
G                      Bm
Que posso fazer por você

      Em           Bm
Você é minha diversão
       Em
Não planejei achar em você
D              F#m
Tanto entretenimento
            Em              Bm
Curto sua banda e a sua canção

          D              C7
Gosto do seu jeito de tocar
               G
Junto vou cantar (Wooowowou)

G                      Bm
Que posso fazer por você
G                      Bm                  D
Que posso fazer que ninguém mais possa fazer
G                      Bm
Que posso fazer por você
G                      Bm
Que posso fazer por você

[Tab - Solo]

E|------6h8-6-x-x-x-8b10-10-10r8-8-6-8~-x-8----6---------------18-|
B|---6-8-----------------------------------6-8---18h20-20-20-20---|
G|-7--------------------------------------------------------------|
D|----------------------------------------------------------------|
A|----------------------------------------------------------------|
E|----------------------------------------------------------------|

E|------------------------------------15-18-18h20p18-22-20-x-18-22|
B|-20-20r18-18h19-18h19r18-15-18-15-18----------------------------|
G|----------------------------------------------------------------|
D|----------------------------------------------------------------|
A|----------------------------------------------------------------|
E|----------------------------------------------------------------|

E|-18h20--15-18-15h18r15----15------------------------------------|
B|-----------------------18-----18h20---18b20r18--16--13-11--13---|
G|----------------------------------------------------------------|
D|----------------------------------------------------------------|
A|----------------------------------------------------------------|

E|----------------------------------------------------------------|
B|-x--x---8p6-------------------------------10h11h13r12~--x--x----|
G|-------------7p5-----------------12-----------------------------|
D|--------------------8h10p9---9--------9-------------------------|
A|----------------------------------------------------------------|
E|----------------------------------------------------------------|

E|-----------------------------------------------------15-15-15-15|
B|-----13------------13-----------13r12------/15-15-15-15-15-15-15|
G|---------10---x---------10--12----------------------------------|
D|-9--------------------------------------------------------------|
A|----------------------------------------------------------------|
E|----------------------------------------------------------------|

E|--15-15-15-15-15-------16b17--16b17r16-19-----------------------|
B|--15-15-15-15-15----------------------------17-20-17-19-15------|
G|----------------------------------------------------------------|
D|----------------------------------------------------------------|
A|----------------------------------------------------------------|
E|----------------------------------------------------------------|

E|--------------------------------------------------13-13-13-13-13|
B|--------------------------------------------------13-13-15-15-15|
G|-------------------10------10---12--12~--10-12------------------|
D|---x-x----/9---12------12---------------------------------------|
A|----------------------------------------------------------------|
E|----------------------------------------------------------------|

E|-13-13-13-14-14-14-14-14-14----x--------------------------------|
B|-15-15-15-15-15-15-15-15-15----x--------------------------------|
G|-------------------------------x--------------------------------|
D|-------------------------------x--------------------------------|
A|-------------------------------x--------------------------------|
E|-------------------------------x--------------------------------|

( G  Bm  G  Bm  D )             
( G  Bm  G  Bm )
( G  Bm  G  Bm )
( G  Bm  G  Bm )
Outros vídeos desta música
15.084 exibições
    • ½ Tom
    • A
    • Bb
    • B
    • C
    • Db
    • D
    • Eb
    • E
    • F
    • F#
    • G
    • Ab
  • Adicionar à lista

Afinação da cifra

Afinador online

    0 comentários

    Ver todos os comentários

    Entre para o Cifra Club PRO

    Tenha acesso a benefícios exclusivos no App e no Site

    • Chega de anúncios

    • Mais recursos no app do Afinador

    • Atendimento Prioritário

    • Aumente seu limite de lista

    • Ajude a produzir mais conteúdo

    Cifra Club Pro

    Aproveite o Cifra Club com benefícios exclusivos e sem anúncios
    Cifra Club Pro
    Aproveite o Cifra Club com benefícios exclusivos e sem anúncios
    OK