Cifra Club

Rainy Day

Street Bulldogs

Cifra: Principal (violão e guitarra)
Selo Cifra Club: esta cifra foi revisada para atender aos critérios oficiais da nossa Equipe de Qualidade.
tom: D
Street bulldogs 
rainy day

A intro e no baixo!a guitarra faz isso abafado um tanto de vezes ate entrar a outra!!

(D G)
Faz essa base quando o leo comeca a cantar
------------------------------------------
------------------------------------------
-7/9-9-7-11-7/9-9-7-7-11-7/9--------------
------------------------------------------
-5/7-7-5-9--5/7-7-5-7-9--5/7--------------
------------------------------------------
Pre refrao;
base: B  G(D)

a guitarra 2 faz:
----------------------------------------------
----------------------------------------------
-16-16-16-16-16/19-19-19-19-------------------
----------------------------------------------
-14-14-14-14-14/17-17-17-17-------------------
----------------------------------------------
Essa parte é aquela q fica "time goes by take so do i"
  (A G)
essa e a parte q fica parando!
(B)
----------------------------------------------
----------------------------------------------
-4-4---4-4------------------------------------
-4-4---4-4------------------------------------
-2-2---2-2------------------------------------
----------------------------------------------
You don't care about it
(B G D A)
--------------------------------------------
--------------------------------------------
-4-4-----7-7--------------------------------
-4-4-5-5-7-7-7------------------------------
-2-2-5-5-5-7-7------------------------------
-----3-3-----5------------------------------
Ah ai depois volta tudo  de novo e só!
Outros vídeos desta música
2.523 exibições
    • ½ Tom
    • A
    • Bb
    • B
    • C
    • Db
    • D
    • Eb
    • E
    • F
    • F#
    • G
    • Ab
  • Adicionar à lista

Afinação da cifra

Afinador online

    0 comentários

    Ver todos os comentários

    Entre para o Cifra Club PRO

    Tenha acesso a benefícios exclusivos no App e no Site

    • Chega de anúncios

    • Mais recursos no app do Afinador

    • Atendimento Prioritário

    • Aumente seu limite de lista

    • Ajude a produzir mais conteúdo

    Cifra Club Pro

    Aproveite o Cifra Club com benefícios exclusivos e sem anúncios
    Cifra Club Pro
    Aproveite o Cifra Club com benefícios exclusivos e sem anúncios
    OK