Cifra Club

Lax To Ohare

The Academy Is...

Cifra: Principal (violão e guitarra)
tom: A
e|----------------------------|-------------------------------|---------------------------|
B|----------------------------|-------------------------------|---------------------------|
G|----------------------------|-------------------------------|---------------------------|
D|----------77----------------|-------77-99-------------------|---------------------------|
A|-------99----99----2-4-5-4--|----99---------77-99-10-10-15~-|---------------------------|
E|----77-----------3----------|-77----------------------------|---------------------------|
                                                                  It was a plane  ride


-----------------------|-----------------------------|-----------------------------------------|
-----------------------|-----------------------------|-----------------------------------------|
-----------------------|-----------------------------|-----------------------------------------|
-----------------------|-----------------------------|-----------------------------------------|
-----------------------|-----------------------------|-----------------------------------------|
-----------------------|-----------------------------|-----------------------------------------|

 from LAX to O'hare        and what happened next     was a series of unfortunate events


-----------------------------------------------7----|------------------7-------------------|
-----------------------------------------------8----|------------------8-------------------|
-----------------------------------------------7----|------------------7-------------------|
----------------------------------------------------|------99-77-99---------------99-77-99-|
----------------------------------------------------|--------------------------------------|
----------------------------------------------------|--------------------------------------|
      please stay tuned for what happened next        The life I breathe for you gives to 

                                                                               
---7---------------7-------------7-----|-----5-----------------2-----------------------------|
---8---------------8-------------8-----|-----5-----------------2-----------------------------|
---7---------------7-------------7-----|-----6-----------------4--------------99999999999999-|
------99-77-99---------99-77-99--------|-----7-----------------4--------------99999999999999-|
---------------------------------------|-----7-----------------2--------------77777777777777-|
---------------------------------------|-----5-----------------------------------------------|
 me   new wounds                         to patch and dress as I reflect on what else I could 

---------------|-----------------------------------------------------------------------------|
---------------|-----------------------------------------------------------------------------|
--99999999-----|-----------------------------------------------------------------------------|
--99999999-----|-----------------9-9-9-9-9-9-9-9-7-7-7-7-7-7-7-2-2-2-2-2-2-2-2-2-2-2-2-5-5-5-|
--77777777-----|-----------------9-9-9-9-9-9-9-9-7-7-7-7-7-7-7-2-2-2-2-2-2-2-2-2-2-2-2-5-5-5-|
---------------|-----------------7-7-7-7-7-7-7-7-5-5-5-5-5-5-5-0-0-0-0-0-0-0-0-0-0-0-0-3-3-3-|
give you         Maybe I should blindly throw my faith into the next thing that comes my way.


----------------------------------------------------------------------------------|
----------------------------------------------------------------------------------|
----------------------------------------------------------------------------------|
--5-5-5-5-5-5-5-5-5---9-9-9-9-9-9-9-9-9-9-7-7-7-7-7-7-7-7-2-2-2-2-2-2-2-2-2-2-----|
--5-5-5-5-5-5-5-5-5---9-9-9-9-9-9-9-9-9-9-7-7-7-7-7-7-7-7-2-2-2-2-2-2-2-2-2-2-----|
--3-3-3-3-3-3-3-3-3---7-7-7-7-7-7-7-7-7-7-5-5-5-5-5-5-5-5-0-0-0-0-0-0-0-0-0-0-----|
      standing at the back door with the life that she left behind.


----------------------------------------------------------------------------------------------|
----------------------------------------------------------------------------------------------|
----------------------------------------------------------------------------------------------|
--2-2-2-2-2-2--9-9-9-9-9-9-9-9-7-7-7-7-7-7-7-7-7-2-2-2-2-2-2-2-2-2--5-5-5-5-5-5-5-5-5-5-5-5-5-|
--2-2-2-2-2-2--9-9-9-9-9-9-9-9-7-7-7-7-7-7-7-7-7-2-2-2-2-2-2-2-2-2--5-5-5-5-5-5-5-5-5-5-5-5-5-|
--0-0-0-0-0-0--7-7-7-7-7-7-7-7-5-5-5-5-5-5-5-5-5-0-0-0-0-0-0-0-0-0--3-3-3-3-3-3-3-3-3-3-3-3-3-|
Are we all the same behind the frame beneath the glass and fake last names?


----------------------------------------------------------------------------------------------|
----------------------------------------------------------------------------------------------|
----------------------------------------------------------------------------------------------|
--5-5-5-5-5-5-5-5--2-2-2-2-2-2-2-2-4-4-4-4-4-4-4-4-4-5-5-5-5-5-5-7-7-7-7-7-7-7-7-7-7-7-7-7-7--|
--5-5-5-5-5-5-5-5--2-2-2-2-2-2-2-2-4-4-4-4-4-4-4-4-4-5-5-5-5-5-5-7-7-7-7-7-7-7-7-7-7-7-7-7-7--|
--3-3-3-3-3-3-3-3--0-0-0-0-0-0-0-0-2-2-2-2-2-2-2-2-2-3-3-3-3-3-3-5-5-5-5-5-5-5-5-5-5-5-5-5-5--|
I've been waiting far too long to feel  the  sun  on  my  back.


e|----------------------------|-------------------------------|----------------7----------|
B|----------------------------|-------------------------------|----------------8----------|
G|----------------------------|-------------------------------|----------------7----------|
D|----------77----------------|-------77-99-------------------|---------------------------|
A|-------99----99----2-4-5-4--|----99---------77-99-10-10-15~-|---------------------------|
E|----77-----------3----------|-77----------------------------|---------------------------|
                                                                   It was a big bang


-----7--------7----------7---------------4--4--7--7----------7-------------7------------|
-----8--------8----------8---------------5--5--8--8----------8-------------8------------|
-----7--------7----------7---------------4--4--7--7----------7-------------7------------|
----------------------------------------------------------------------------------------|
----------------------------------------------------------------------------------------|
----------------------------------------------------------------------------------------|
and a bright white light from no where              It turned my coach class window to


-------7----------7----------4-------4--------2--2-------7------7-----7---------7-------------|
-------8----------8----------5-------5--------3--3-------8------8-----8---------8-------------|
-------7----------7----------4-------4--------2--2-------7------7-----7---------7-------------|
----------------------------------------------------------------------------------------------|
----------------------------------------------------------------------------------------------|
----------------------------------------------------------------------------------------------|
a first class seat on the evening news on NBC      The life I gave for you is yours



-------------4--------4-------7-----7----|-------------5------------------2---------------|
-------------5--------6-------8-----8----|-------------5------------------2---------------|
-------------4--------4-------7-----7----|-------------6------------------4---------------|
-----------------------------------------|-------------7------------------4---------------|
-----------------------------------------|-------------7------------------2---------------|
-----------------------------------------|-------------5----------------------------------|
so keep it, you oughtta keep it.             If I had one last chance to take it all back


--------------------------------|
------9999999999999999999999----|
------9999999999999999999999----|
------7777777777777777777777----|
--------------------------------|
you know I'd take take take you.


------------------------------------------------------------------------------|
------------------------------------------------------------------------------|
------------------------------------------------------------------------------|
---------------9-9-9-9-9-9-9-9-7-7-7-7-7-7-7-2-2-2-2-2-2-2-2-2-2-2-2-5-5-5----|
---------------9-9-9-9-9-9-9-9-7-7-7-7-7-7-7-2-2-2-2-2-2-2-2-2-2-2-2-5-5-5----|
---------------7-7-7-7-7-7-7-7-5-5-5-5-5-5-5-0-0-0-0-0-0-0-0-0-0-0-0-3-3-3----|
Maybe I should blindly throw my faith into the next thing that comes my way.



----------------------------------------------------------------------------------|
----------------------------------------------------------------------------------|
----------------------------------------------------------------------------------|
--5-5-5-5-5-5-5-5-5---9-9-9-9-9-9-9-9-9-9-7-7-7-7-7-7-7-7-2-2-2-2-2-2-2-2-2-2-----|
--5-5-5-5-5-5-5-5-5---9-9-9-9-9-9-9-9-9-9-7-7-7-7-7-7-7-7-2-2-2-2-2-2-2-2-2-2-----|
--3-3-3-3-3-3-3-3-3---7-7-7-7-7-7-7-7-7-7-5-5-5-5-5-5-5-5-0-0-0-0-0-0-0-0-0-0-----|
      standing at the back door with the life that she left behind.


----------------------------------------------------------------------------------------------|
----------------------------------------------------------------------------------------------|
----------------------------------------------------------------------------------------------|
--2-2-2-2-2-2--9-9-9-9-9-9-9-9-7-7-7-7-7-7-7-7-7-2-2-2-2-2-2-2-2-2--5-5-5-5-5-5-5-5-5-5-5-5-5-|
--2-2-2-2-2-2--9-9-9-9-9-9-9-9-7-7-7-7-7-7-7-7-7-2-2-2-2-2-2-2-2-2--5-5-5-5-5-5-5-5-5-5-5-5-5-|
--0-0-0-0-0-0--7-7-7-7-7-7-7-7-5-5-5-5-5-5-5-5-5-0-0-0-0-0-0-0-0-0--3-3-3-3-3-3-3-3-3-3-3-3-3-|
Are we all the same behind the frame beneath the glass and fake last names?

----------------------------------------------------------------------------------------------|
----------------------------------------------------------------------------------------------|
----------------------------------------------------------------------------------------------|
--5-5-5-5-5-5-5-5--2-2-2-2-2-2-2-2-4-4-4-4-4-4-4-4-4-5-5-5-5-5-5-7-7-7-7-7-7-7-7-7-7-7-7-7-7--|
--5-5-5-5-5-5-5-5--2-2-2-2-2-2-2-2-4-4-4-4-4-4-4-4-4-5-5-5-5-5-5-7-7-7-7-7-7-7-7-7-7-7-7-7-7--|
--3-3-3-3-3-3-3-3--0-0-0-0-0-0-0-0-2-2-2-2-2-2-2-2-2-3-3-3-3-3-3-5-5-5-5-5-5-5-5-5-5-5-5-5-5--|
I've been waiting far too long to feel  the  sun  on  my  back.



--------------------------------------------------------------------------------------------|
--------------------------------------------------------------------------------------------|
--------7------------------------------------------------------------------------------------|
--------7---------------------7-----------------------9------------------------5--------------|
--------5---------------------7-----------------------9------------------------5--------------|
------------------------------5-----------------------7------------------------3---------------|
Apologies are all we'll ever be," she said.   standing on the stairs looking back, looking hard at me.



--------------------------------------------------------------------------------------------|
--------------------------------------------------------------------------------------------|
---7-----------------------------------------------------------------------------------------|
---7-----------------------------7----------------------------9--------------------------------|
---5-----------------------------7----------------------------9--------------------------------|
---------------------------------5----------------------------7-------------------------------|
"Life is long for those who have to wait," I said.    It's the choice I had to make.


-------------------------------------------------|
-------------------------------------------------|
-------------------------------------------------|
------------------5------------------------------|
------------------5------------------------------|
------------------3------------------------------|
The choice I had to make.   It's the choice I had to...

(217)

--7--7------7-----7-----7-----7---------4------4------7------7----7----7---7--7--4--4-----7~--|
--8--8------7-----7-----7-----7---------5------5------8------8----7----7---7--7--5--5-----8~--|
--7--7------7-----7-----7-----7---------4------4------7------7----7----7---7--7--4--4-----7~--|
----------------------------------------------------------------------------------------------|
----------------------------------------------------------------------------------------------|
----------------------------------------------------------------------------------------------|

       It was a plane ride (plane ride) It was a plain ride (plain ride) It was a plain ride Just a plain...


------------------------------------------------------------------------------|
------------------------------------------------------------------------------|
------------------------------------------------------------------------------|
---------------9-9-9-9-9-9-9-9-7-7-7-7-7-7-7-2-2-2-2-2-2-2-2-2-2-2-2-5-5-5----|
---------------9-9-9-9-9-9-9-9-7-7-7-7-7-7-7-2-2-2-2-2-2-2-2-2-2-2-2-5-5-5----|
---------------7-7-7-7-7-7-7-7-5-5-5-5-5-5-5-0-0-0-0-0-0-0-0-0-0-0-0-3-3-3----|
Maybe I should blindly throw my faith into the next thing that comes my way.



----------------------------------------------------------------------------------|
----------------------------------------------------------------------------------|
----------------------------------------------------------------------------------|
--5-5-5-5-5-5-5-5-5---9-9-9-9-9-9-9-9-9-9-7-7-7-7-7-7-7-7-2-2-2-2-2-2-2-2-2-2-----|
--5-5-5-5-5-5-5-5-5---9-9-9-9-9-9-9-9-9-9-7-7-7-7-7-7-7-7-2-2-2-2-2-2-2-2-2-2-----|
--3-3-3-3-3-3-3-3-3---7-7-7-7-7-7-7-7-7-7-5-5-5-5-5-5-5-5-0-0-0-0-0-0-0-0-0-0-----|
      standing at the back door with the life that she left behind.


----------------------------------------------------------------------------------------------|
----------------------------------------------------------------------------------------------|
----------------------------------------------------------------------------------------------|
--2-2-2-2-2-2--9-9-9-9-9-9-9-9-7-7-7-7-7-7-7-7-7-2-2-2-2-2-2-2-2-2--5-5-5-5-5-5-5-5-5-5-5-5-5-|
--2-2-2-2-2-2--9-9-9-9-9-9-9-9-7-7-7-7-7-7-7-7-7-2-2-2-2-2-2-2-2-2--5-5-5-5-5-5-5-5-5-5-5-5-5-|
--0-0-0-0-0-0--7-7-7-7-7-7-7-7-5-5-5-5-5-5-5-5-5-0-0-0-0-0-0-0-0-0--3-3-3-3-3-3-3-3-3-3-3-3-3-|
Are we all the same behind the frame beneath the glass and fake last names?

----------------------------------------------------------------------------------------------|
----------------------------------------------------------------------------------------------|
----------------------------------------------------------------------------------------------|
--5-5-5-5-5-5-5-5--2-2-2-2-2-2-2-2-4-4-4-4-4-4-4-4-4-5-5-5-5-5-5-7-7-7-7-7-7-7-7-7-7-7-7-7-7--|
--5-5-5-5-5-5-5-5--2-2-2-2-2-2-2-2-4-4-4-4-4-4-4-4-4-5-5-5-5-5-5-7-7-7-7-7-7-7-7-7-7-7-7-7-7--|
--3-3-3-3-3-3-3-3--0-0-0-0-0-0-0-0-2-2-2-2-2-2-2-2-2-3-3-3-3-3-3-5-5-5-5-5-5-5-5-5-5-5-5-5-5--|
I've been waiting far too long to feel  the  sun  on  my  back.


e|-----------------------------------------------------------------------|
B|-----------------------------------------------------------------------|
G|-----------------------------------------------------------------------|
D|--------77---------------------77----------------------77--------------|
A|-----99----99---2-4-5-4-----99----99----2-4-5-4-----99----99---2-4-5-4-|
E|--77----------3----------77-----------3----------77----------3---------|

-------------------------------------------------------------------|
-------------------------------------------------------------------|
----------------------------------------------17~------------------|
--------77-99---------------------------------17~------------------|
-----99-------77-99-10-10-14-----77-99-10-10--15~------------------|
--77---------------------------------------------------------------|
                                                But one day, I will stay

00:00 / 00:00
Outros vídeos desta música
Repetir
Outros vídeos desta música
Composição de The Academy Is... / William Beckett
494 exibições
    • ½ Tom
    • A
    • Bb
    • B
    • C
    • Db
    • D
    • Eb
    • E
    • F
    • F#
    • G
    • Ab
  • Adicionar à lista

    0 comentários

    Ver todos os comentários

    Conseguiu tocar?

    0 Tocaram 0 Ainda não

    Grave um vídeo tocando Lax To Ohare e nos envie!

    00:00 / 00:00

    Cifra Club Pro

    Aproveite o Cifra Club com benefícios exclusivos e sem anúncios
    Cifra Club Pro
    Aproveite o Cifra Club com benefícios exclusivos e sem anúncios
    OK