Cifra Club

Come Home Baby Julie Come Home

The American Analog Set

Cifra: Principal (violão e guitarra)
Selo Cifra Club: esta cifra foi revisada para atender aos critérios oficiais da nossa Equipe de Qualidade.
tom: G
Tabbed by:Wade Gwin
Email: *

Tuning: standard (Eadgbe)

e|--------------------------------------------------------------------------------|
B|--------------------------------------------------------------------------------|
G|--------------------------------------------------------------------------------|
D|------7-----7-----7---------------0-----0-----0-------------0-----0-----0-------|
A|--7-----7-----7-----7---7-----9-----9-----9-----9-------5-----5-----5-----5-----|
E|5---5-----5-----5-----5----/7---7-----7-----7-----7--\3---3-----3-----3-----3---|

e|-----------------------------|
B|-----------------------------|
G|-----------------------------|
D|-------2---------------0-----|
A|---2-----2---2-----5-----5---|
E|\0---0-----0----/3---3-----3-|  Repeat through whole song.

an easy song that sounds good. it's 110% correct.
~Am An Set~


 \  slide down
 /  slide up
===============================================================================
Outros vídeos desta música
    376 exibições
      • ½ Tom
      • A
      • Bb
      • B
      • C
      • Db
      • D
      • Eb
      • E
      • F
      • F#
      • G
      • Ab
    • Adicionar à lista

    Afinação da cifra

    Afinador online

      0 comentários

      Ver todos os comentários

      Conseguiu tocar?

      0Tocaram0Ainda não

      Grave um vídeo tocando Come Home Baby Julie Come Home e nos envie!

      Toque também

      1. Imagem do artista PinbackLoro Pinback
      2. Imagem do artista Yo La TengoDemons Yo La Tengo
      3. Imagem do artista Pedro The LionDiamond Ring Pedro The Lion
      4. Imagem do artista The Sea And CakeJacking The Ball The Sea And Cake

      Entre para o Cifra Club PRO

      Tenha acesso a benefícios exclusivos no App e no Site

      • Chega de anúncios

      • Badges exclusivas

      • Mais recursos no app do Afinador

      • Atendimento Prioritário

      • Aumente seu limite de lista

      • Ajude a produzir mais conteúdo

      Cifra Club Pro

      Aproveite o Cifra Club com benefícios exclusivos e sem anúncios
      Cifra Club Pro
      Aproveite o Cifra Club com benefícios exclusivos e sem anúncios
      Ops (: Contenido disponible sólo en portugués.
      OK