Cifra Club

Van Der Graaff

The Courteeners

Cifra: Principal (violão e guitarra)
Selo Cifra Club: esta cifra foi revisada para atender aos critérios oficiais da nossa Equipe de Qualidade.
tom: C
Intro
E|---8---8--10--8---8--12--8---8--10--8---8--------8--------8-------------------|
B|-----8----------8----------8----------8-------8--------8-------8--10----------|
G|-------------------------------------------10-------9-------7-----------------|
D|----------------------------------------------------------------------10--9---| x 3
A|------------------------------------------------------------------------------|
E|------------------------------------------------------------------------------|

Break
E|----------------------------------|
B|----------------------------------|
G|----------------------------------|
D|----------------------------------|
A|-----8/10--8--6---6--8--6---------|
E|----------------8----------8--8---|

Verse
E|--------------------------| e|-----------------------------|-------------------------|
B|--------------------------| B|-----------------------------|-------------------------|
G|--------------------------| x2   G|-----------------------------|-------------------------|
D|--------------------------| D|-----------------------------|-------------------------|
A|--8/10--8-6--6--8-6-------| A|--8/10--8-6-8-8/10--8-6-8-6--|--8/10--8-6--6--8~~------|
E|-----------8--------8-8---| E|-----------------------------|-----------8-------------|

Chorus

C, Am, Em, G   x2


Song:

Intro x 3
Break
Verse
Chorus x 2
Intro
Break
Verse
Chorus x 2
Verse x 2 
Intro 
Chorus x 2
Verse
Outros vídeos desta música
    11 exibições
      • ½ Tom
      • A
      • Bb
      • B
      • C
      • Db
      • D
      • Eb
      • E
      • F
      • F#
      • G
      • Ab
    • Adicionar à lista

    Afinação da cifra

    Afinador online

      0 comentários

      Ver todos os comentários

      Conseguiu tocar?

      0Tocaram0Ainda não

      Grave um vídeo tocando Van Der Graaff e nos envie!

      Toque também

      1. Imagem do artista The ViewSuperstar Tradesman The View
      2. Imagem do artista The RiflesShes Got Standards The Rifles
      3. Imagem do artista Little Man TateWhat What You Got Little Man Tate
      4. Imagem do artista The EnemyHad Enough The Enemy

      Entre para o Cifra Club PRO

      Tenha acesso a benefícios exclusivos no App e no Site

      • Chega de anúncios

      • Badges exclusivas

      • Mais recursos no app do Afinador

      • Atendimento Prioritário

      • Aumente seu limite de lista

      • Ajude a produzir mais conteúdo

      Cifra Club Pro

      Aproveite o Cifra Club com benefícios exclusivos e sem anúncios
      Cifra Club Pro
      Aproveite o Cifra Club com benefícios exclusivos e sem anúncios
      Ops (: Contenido disponible sólo en portugués.
      OK