Cifra Club

Onde Estão Teus Olhos Negros

The Fevers

Cifra: Principal (violão e guitarra)
Selo Cifra Club: esta cifra foi revisada para atender aos critérios oficiais da nossa Equipe de Qualidade.
tom: C
[Tab Intro] 

[Parte 1 De 2] 

    Am          Am7M/G#     Am7/G       Am6/F#
E|-----------5-----------5-----------5-----------5---|
B|--------5-----------5-----------5-----------5------|
G|-----5-----------5-----------5-----------5---------|
D|--7-----------6-----------5-----------4------------|
A|---------------------------------------------------|
E|---------------------------------------------------|

[Parte 2 De 2] 

    E5/F                  E            E
E|-----------0-------------------------0-------------|
B|--------5-----5----------------------0-------------|
G|-----5-----------5---------------1---1-------------|
D|--3-----------------3---------2------2-------------|
A|---------------------------2---------2-------------|
E|------------------------0------------0-------------|
                                       ↓

Padrões de Dedilhado

       Am, A                 E                Dm
E|-----0-----0--0--------0-----0--0--------1-----1--1|
B|-----X-----X--X--------0-----0--0--------3-----3--3|
G|-----2-----2--2--------1-----1--1--------2-----2--2|
D|-----2-----2--2--------2-----2--2-----0------------|
A|--0-----------------------0-----------------0------|
E|--------0-----------0------------------------------|
       ↓     ↑   ↓       ↓      ↑  ↓        ↓     ↑  ↓

      B7, Bm
E|-----2-----2--2---|
B|-----X-----X--X---|
G|-----X-----X--X---|
D|-----4-----4--4---|
A|--------2---------|
E|--2---------------|
       ↓     ↑   ↓

[Primeira Parte] 

Am                       E7
Onde estão teus olhos negros
                       Am
Onde estão teus olhos negros
Dm                        Am
Que eu de perto vi, antes de dormir
   B7                 E  E7
E agora estão longe daqui
Am                       E7
Onde estão teus olhos negros
                       Am
Onde estão teus olhos negros
Dm                        Am
Que eu de perto vi, antes de dormir
   B7                 E  E2
E agora estão longe daqui

[Refrão] 

    A         A7      Bm
Chorando eu saí pelo mundo
   E            E7        Am
Perdido e sem saber aonde ir
   Dm                  Am
Queria que soubesse o quanto eu te amo
   B7                     E    E7
E quero ter você junto a mim

[Primeira Parte] 

Am                       E7
Onde estão teus olhos negros
                       Am
Onde estão teus olhos negros
Dm                        Am
Que eu de perto vi, antes de dormir
   B7                 E  E7
E agora estão longe daqui
Am                       E7
Onde estão teus olhos negros
                       Am
Onde estão teus olhos negros
Dm                        Am
Que eu de perto vi, antes de dormir
   B7                 E  E2
E agora estão longe daqui

[Refrão] 

     A             A7         Bm
Não tenho mais prazer, só tristeza
     E           E7       Am
Não tenho mais razão de viver
    Dm                       Am
Não perco a esperança de te encontrar um dia
   B7                   E   E7
E terminar assim, meu sofrer

[Primeira Parte] 

Am                       E7
Onde estão teus olhos negros
                       Am
Onde estão teus olhos negros
Dm                        Am
Que eu de perto vi, antes de dormir
   B7                 E  F7
E agora estão longe daqui

Modulação 1/2 Tom

[Primeira Parte] 

A#m                       F7
Onde estão teus olhos negros
                       A#m
Onde estão teus olhos negros
D#m                       A#m
Que eu de perto vi, antes de dormir
   C7                  F  F7
E agora estão longe daqui
A#m                     F7
Onde estão teus olhos negros
                       A#m
Onde estão teus olhos negros
D#m                       A#m
Que eu de perto vi, antes de dormir...
Outros vídeos desta música
34.691 exibições
    • ½ Tom
    • A
    • Bb
    • B
    • C
    • Db
    • D
    • Eb
    • E
    • F
    • F#
    • G
    • Ab
  • Adicionar à lista

Afinação da cifra

Afinador online

    0 comentários

    Ver todos os comentários

    Entre para o Cifra Club PRO

    Tenha acesso a benefícios exclusivos no App e no Site

    • Chega de anúncios

    • Mais recursos no app do Afinador

    • Atendimento Prioritário

    • Aumente seu limite de lista

    • Ajude a produzir mais conteúdo

    Cifra Club Pro

    Aproveite o Cifra Club com benefícios exclusivos e sem anúncios
    Cifra Club Pro
    Aproveite o Cifra Club com benefícios exclusivos e sem anúncios
    OK