Cifra Club

Acid Jazz Singer

The Fratellis

Cifra: Principal (violão e guitarra)
Selo Cifra Club: esta cifra foi revisada para atender aos critérios oficiais da nossa Equipe de Qualidade.
tom: D
(intro) A  D A  D

A                                              D
Well let me tell you something let me tell you so
A                                                   D
This could be the one thing that you really need to know
              D7
You've got to stop once in a while
                    A
And shake off that face of yours
F#m                       C#m
Cause nothing comes easy no it just comes free
F#m                                  C#m              E
You could sing it better if you'd sing it for me oh sister

A                                     D
Well I cannot claim this advice as my own
A                                              D
I learned it in the gutter one night crawling home
          D7
She said "Don't you look ridiculous"
                       A
I checked her out meticulously
F#m
I don't wanna' stop to argue but my
C#m
Teeth were broke
             F#m
I said " I'd love to contradict you
        C#m              E
But my life's a joke oh sister"

          A
She said I'm no genius and I've lost myself

The books are on the table and the secret's on the shelf
         D7
And it's one time keep it slow wind them up and here we go
A
Get it right today and you may still be here tomorrow
E
Some said she was saintly to some she was a swinger
D7                                               A
Me I only knew here as an acid jazz singer come on

        A
E |------------------------------------------------5---------------------|
B |----------------------------------------------------------------------|
G |------7b9r7p5---7b9r7p5-----------7b9r7p5-----------------------------| x2
D |--------------------------7-----------------7-------------------------|
A |----------------------------------------------------------------------|
E |----------------------------------------------------------------------|

A                                    D
Well I'm a lucky man and maybe so is she
A                                       D
And maybe this is just the way it has to be
          D7
It's all based on speculation seems a crazy occupation to me
F#m                                  C#m
And though I didn't much believe her I was bound to call
F#m                       C#m                          E
I really didn't want to miss a single thing at all oh sister

          A
She said I'm no genius and I've lost myself

The books are on the table and the secret's on the shelf
D7
And it's one time keep it slow wind them up and here we go
A
Get it right today and you may still be here tomorrow
E
Some said she was saintly to some she was a swinger
D7                                               A
Me I only knew here as an acid jazz singer come on

      A
E |------------------------------------------------5---------------------|
B |----------------------------------------------------------------------|
G |------7b9r7p5---7b9r7p5------------7b9r7p5----------------------------| x2
D |-7~-------------------------7---7~-----------7------------------------|
A |-7~-----------------------------7~------------------------------------|
E |-5~-----------------------------5~------------------------------------|
      C5
E |-----------------------------------------------------------8----------|
B |----------------------------------------------------------------------|
G |------10b12r10p8---10b12r10p8------------10b12r10p8-------------------|
D |-10~---------------------------10---10~---------------10--------------|
A |-10~--------------------------------10~-------------------------------|
E |-8~---------------------------------8~--------------------------------|

      A
E |------------------------------------------------5---------------------|
B |----------------------------------------------------------------------|
G |------7b9r7p5---7b9r7p5------------7b9r7p5----------------------------|
D |-7~-------------------------7---7~-----------7------------------------|
A |-7~-----------------------------7~------------------------------------|
E |-5~-----------------------------5~------------------------------------|

        E       D       C#m     Bm
|e|--------12------10-------9-----7--------------------------------------|
|B|----------------------------------------------------------------------|
|G|----/13------11-------9-----7-----------------------------------------| x3
|D|----------------------------------------------------------------------|
|A|----------------------------------------------------------------------|
|E|----------------------------------------------------------------------|
 Uma outra guitarra faz esses acordes:

        E       D       C#m     Bm
|e|-----12------10-------9------7----------------------------------------|
|B|-----12------10-------9------7----------------------------------------|
|G|-----13------11-------9------7----------------------------------------| x3
|D|-----14------12-------11-----9----------------------------------------|
|A|-----14------12-------11-----9----------------------------------------|
|E|-----12------10-------9------7----------------------------------------|
(na terceira vez, as notas agudas são repetidas três vezes, ouça a musica para pegar o ritmo)

        A5                              E
E |--------------------------------------0--------------------------------|
B |---------------2----------------------0--------------------------------|
G |------2-----------4--2----------------9--------------------------------|
D |------2-----------------4--2----------9--------------------------------|
A |------0-------------------------------7--------------------------------|
E |------------------------------3b4-----0--------------------------------|

A
She said I'm no genius and I've lost myself

The books are on the table and the secret's on the shelf
         D7
And it's one time keep it slow wind them up and here we go
A
Get it right today and you may still be here tomorrow
E
Some said she was saintly to some she was a swinger
D
Me I only knew here as an acid jazz singer
E
I haven't seen her lately man I have to ring her
D7 (staccato)                                          A
Put your hands together for the Acid jazz singer come on...

        A                       G       C
E |------5---5---5---5-----------3-------3-------------------------------|
B |------5---5---5---5-----------3-------5-------------------------------|
G |------6---6---6---6-----------4-------5-------------------------------| x17
D |------7---7---7---7-----------5-------5-------------------------------|
A |------7---7---7---7-----------5-------3-------------------------------|
E |------5---5---5---5-----------3-------3-------------------------------|
(na última vez, o ritmo é mais lento)
Outros vídeos desta música
    2.944 exibições
      • ½ Tom
      • A
      • Bb
      • B
      • C
      • Db
      • D
      • Eb
      • E
      • F
      • F#
      • G
      • Ab
    • Adicionar à lista

    Afinação da cifra

    Afinador online

      0 comentários

      Ver todos os comentários

      Conseguiu tocar?

      0Tocaram0Ainda não

      Grave um vídeo tocando Acid Jazz Singer e nos envie!

      Toque também

      1. Imagem do artista Maxïmo ParkApply Some Pressure Maxïmo Park
      2. Imagem do artista Dirty Pretty ThingsBang Bang You're Dead Dirty Pretty Things
      3. Imagem do artista The Pigeon DetectivesIm Not Sorry The Pigeon Detectives
      4. Imagem do artista Little Man TateWhat What You Got Little Man Tate

      Entre para o Cifra Club PRO

      Tenha acesso a benefícios exclusivos no App e no Site

      • Chega de anúncios

      • Badges exclusivas

      • Mais recursos no app do Afinador

      • Atendimento Prioritário

      • Aumente seu limite de lista

      • Ajude a produzir mais conteúdo

      Cifra Club Pro

      Aproveite o Cifra Club com benefícios exclusivos e sem anúncios
      Cifra Club Pro
      Aproveite o Cifra Club com benefícios exclusivos e sem anúncios
      OK