Cifra Club

Dope On a Rope

The Growlers

Cifra: Principal (violão e guitarra)
Selo Cifra Club: esta cifra foi revisada para atender aos critérios oficiais da nossa Equipe de Qualidade.
tom: A
Em               G
Dope in the wash, strangers in bed
  C                        G
Dead-end nights, make a heart beat half dead
 Em               G
In the mirror, striking a pose
 C                       G
Conjured up glamour in a school play rock show

 Em            G             C                   G
Guess it doesn't last forever, just a feeling to remember
Em             G       Em                G
Dope on a rope we hang, the cat walks the plank
   C                   Em
Unless we turn around, and do it again

 C                    Em
Generations change In a blink the fad's extinct
       C
Find your lover or you'll flash the fame
  D
Before you wake up from your dream

E|-0-3-3-3---7--3-5-5-7-5-|-0-3-3-5-7-7--3-5-5-3---|
B|---------3--------------|------------------------|
G|------------------------|------------------------| (2x)
D|------------------------|------------------------|
A|------------------------|------------------------|
E|------------------------|------------------------|

  Em                  G
Everything changes when
           C                G
When the last call lights shine
  Em             G           C         G
Seizing the heartbeat of our lovely reckless times
 Em           G
Everything changes when
       C                G
When the last call lights shine
Em        G                   C           G
Seizing the heartbeat of our lovely reckless times


E|-0-3-3-3---7--3-5-5-7-5-|-0-3-3-5-7-7--3-5-5-3---|
B|---------3--------------|------------------------|
G|------------------------|------------------------| (2x)
D|------------------------|------------------------|
A|------------------------|------------------------|
E|------------------------|------------------------|

    Em                  G
Collect taxidermy fist as much is on your wrist
   C                          G
New friends flood the list till you're sick
    Em                      G
Trying to have a ball in a tanked up stall
     C                    G
Numb when its from making sense of it all
  Em                G
I guess it doesn't last forever
  C                G
Just the feeling to remember

  Em         G           Em               G
Dope on a rope we hang, the cat walks the plank
   C                      Em
Unless we turn around, and do it again
  Em         G           Em               G
Dope on a rope we hang, the cat walks the plank
   C                      Em
Unless we turn around, and do it again

 C                   Em
Generations change, in a blink, the fad's extinct
     C
Find your lover or you'll taste the fame
      D
Before you wake up from your dream

E|-0-3-3-3---7--3-5-5-7-5-|-0-3-3-5-7-7--3-5-5-3---|
B|---------3--------------|------------------------|
G|------------------------|------------------------|
D|------------------------|------------------------|
A|------------------------|------------------------|
E|------------------------|------------------------|

  Em                  G
Everything changes when
           C                G
When the last call lights shine
  Em             G           C         G
Seizing the heartbeat of our lovely reckless times
 Em           G
Everything changes when
       C                G
When the last call lights shine
Em        G                   C           G
Seizing the heartbeat of our lovely reckless times

( Em G C G )

E|-0-3-3-3---7--3-5-5-7-5-|-0-3-3-5-7-7--3-5-5-3---|
B|---------3--------------|------------------------|
G|------------------------|------------------------|
D|------------------------|------------------------| Till the end
A|------------------------|------------------------|
E|------------------------|------------------------|
00:00 / 00:00
Outros vídeos desta música
Repetir
Outros vídeos desta música
1.170 exibições
    • ½ Tom
    • A
    • Bb
    • B
    • C
    • Db
    • D
    • Eb
    • E
    • F
    • F#
    • G
    • Ab
  • Adicionar à lista

Afinação da cifra

Afinador online

    0 comentários

    Ver todos os comentários

    Conseguiu tocar?

    1 Tocaram 0 Ainda não

    Grave um vídeo tocando Dope On a Rope e nos envie!

    Toque também

    1. Imagem do artista Bass Drum Of Death Crawling After You Bass Drum Of Death
    2. Imagem do artista FIDLAR Leave Me Alone FIDLAR
    3. Imagem do artista Black Lips O Katrina Black Lips
    4. Imagem do artista Ty Segall My Ladys On Fire Ty Segall

    Entre para o Cifra Club PRO

    Tenha acesso a benefícios exclusivos no App e no Site

    • Chega de anúncios

    • Mais recursos no app do Afinador

    • Atendimento Prioritário

    • Aumente seu limite de lista

    • Ajude a produzir mais conteúdo

    00:00 / 00:00

    Cifra Club Pro

    Aproveite o Cifra Club com benefícios exclusivos e sem anúncios
    Cifra Club Pro
    Aproveite o Cifra Club com benefícios exclusivos e sem anúncios
    OK