Cifra Club

This Is An Emergency

The Pigeon Detectives

Cifra: Principal (violão e guitarra)
Selo Cifra Club: esta cifra foi revisada para atender aos critérios oficiais da nossa Equipe de Qualidade.
tom: F
Intro / Verse 1

E|---------------------------------------------|
B|---------------------------------------------|
G|---------------------------------------------|
D|--7----------10---------12----------10-------| x 3
A|--x---x16----x--x16-----x----x28----x---x4---|
E|--5----------8----------10----------8--------|

Pre Chorus

F, Am, C, Dm


E|-13-13----12-12----12-12----13-13--|
B|-13-13-x2-13-13-x2-13-13-x2-15-15--|
G|-14-14----14-14----12-12----14-14--| x2
D|-----------------------------------|
A|-----------------------------------|
E|-----------------------------------|

Chorus

E|------------------|
B|------------------|
G|--7-7-7/9-9-9/12--|
D|--x-x-x/x-x-x/x---| x 8
A|--5-5-5/7-7-7/10--|
E|------------------|

Verse 2

E|-----------------------------------------------|
B|-----------------------------------------------|
G|-----------------------------------------------|
D|--7----------10----------------7-7-5-5-7-7-----| x 2
A|--x--x16-----x-----x16-----5-5--------------x4-|
E|--5----------8---------------------------------|

Pre-Chorus

Chorus

Bridge

E|--------------------|
B|--------------------|
G|--------------------|
D|--------------------|
A|--12*--15*--17*--17*|
E|--------------------|

Pre-Chorus

Chorus x2

Outro

E|--5--5------------------------|
B|--5--5------------------------|
G|--6--6------------------------|
D|--7--7------------------------| x 3
A|--7--7------------------------|
E|--5--5---8-8-8-8-10-10-10-10--|
Outros vídeos desta música
    12 exibições
      • ½ Tom
      • A
      • Bb
      • B
      • C
      • Db
      • D
      • Eb
      • E
      • F
      • F#
      • G
      • Ab
    • Adicionar à lista

    Afinação da cifra

    Afinador online

      0 comentários

      Ver todos os comentários

      Conseguiu tocar?

      0Tocaram0Ainda não

      Grave um vídeo tocando This Is An Emergency e nos envie!

      Toque também

      1. Imagem do artista The RiflesIn Key The Rifles
      2. Imagem do artista Dirty Pretty ThingsBang Bang You're Dead Dirty Pretty Things
      3. Imagem do artista MilburnWell Well Well Milburn
      4. Imagem do artista The EnemyHad Enough The Enemy

      Entre para o Cifra Club PRO

      Tenha acesso a benefícios exclusivos no App e no Site

      • Chega de anúncios

      • Badges exclusivas

      • Mais recursos no app do Afinador

      • Atendimento Prioritário

      • Aumente seu limite de lista

      • Ajude a produzir mais conteúdo

      Cifra Club Pro

      Aproveite o Cifra Club com benefícios exclusivos e sem anúncios
      Cifra Club Pro
      Aproveite o Cifra Club com benefícios exclusivos e sem anúncios
      OK