Cifra Club

Aprenda

Beast Of Burden

The Rolling Stones

Tab de baixo: Estudio
                                       tocar 3 vezes
                                                             i'll never...
g-----|-----|---------|-------------------|---------------|-------------------|---------------|
d-----|-----|---------|*------------------|--------7---9-*|-------------------|--------7---9--|
a-----|-----|---------|*-7---7--7--6---4--|--------------*|--7---7--7--6---4--|---------------|
e-----|-----|--5---7--|-------------------|--0--5---------|-------------------|--0--5---------|

   my back...          but it's...                         you to...
|-------------------|---------------|-------------------|---------------|-------------------|
|-------------------|--------7---9--|-------------------|--------7---9--|-------------------|
|--7---7--7--6---4--|---------------|--7---7--7--6---4--|---------------|--7---7--7--6---4--|
|-------------------|--0--5---------|-------------------|--0--5---------|-------------------|

                          i'll never...                           i've walked...       my feet...
|----------------------|-------------------|-------------------|--------------------|-------------------|
|---------------6---9--|------------5------|------7------------|------------6-------|------7------------|
|--4---4---------------|--7---7------------|-------------------|--7---7-------------|-------------------|
|---------0--4---------|---------4------5--|--5------5---5--7--|---------4------4/--|--5------5---5--7--|

                      you to...                                            hard enugh?
|------------------|---------------|--------------------|---------------|----------------------|
|-----------6------|---------------|-------------6------|---------------|----------------7-----|
|--7---------------|---------------|--7---7-------------|---------------|----------------------|
|--------4------5--|--5---5--5--7--|----------4------0--|--5---5--5--7--|--5--5---5--5------0--|

   rough...                 rich...               not too...                            i'll never...
|------------------------|---------------------|----------------------|--------------|-------------------|
|------------------6-----|------------------7--|-------------------6--|--9--9--------|-------------------|
|---------------6--------|---------------7-----|----------------6-----|--------7--9--|--7---7--7--6------|
|--4--4---4--4--------0--|--5--5---5--5--------|--4--4---4---4--------|--------------|----------------5--|

   beast of...         so let's...          and draw...         music on...        come on...
|-------------------|--------------------|-------------------|------------------|-------------------|
|------7------------|-------------5------|------7------------|------------6-----|------7------------|
|-------------------|--7---7-------------|-------------------|--7---7-----------|-------------------|
|--5------5---5--7--|---------4-------5--|--5------5---5--7--|---------4-----5--|--5------5---5--7--|

                                           hard enough...         rough enough...           rich enough
|-------------------|-------------------|----------------------|-------------------------|----------------------|
|------------5------|------7------------|----------------7-----|-------------------6-----|----------------7-----|
|--7---7------------|-------------------|------------/7--------|---------------/5--------|-------------7--------|
|---------4------5--|--5------5---5--7--|--5---5--5---------0--|--4--4---4--4---------0--|--5--5---5---------0--|

   not too...                                    oh     little...        pretty...           pretty...
|-----------------------|---------------------|-----------------------|-------------------|---------------|
|----------------6------|------------------7--|--9--9---9---9--9------|-------------------|--------7---9--|
|-------------6---------|-----------7--9------|-------------------9\--|--7---7--7--6---4--|---------------|
|--4--4---4---------4/--|--7--7--5------------|-----------------------|-------------------|--0--5---------|

|-------------------|---------------|-------------------|---------------|-------------------|---------------|
|-------------------|--------7---9--|-------------------|--------7---9--|-------------------|--------7---9--|
|--7---7--7--6---4--|---------------|--7---7--7--6---4--|---------------|--7---7--7--6---4--|---------------|
|-------------------|--0--5---------|-------------------|--0--5---------|-------------------|--0--5---------|

   pretty...           pretty...         pretty...         pretty...        come on...          please...
|-------------------|-----------------|-----------------|----------------|-------------------|-------------------|
|-------------------|-----------------|----------6------|----------------|------------6------|------7------------|
|--7---7--7--7------|-----------------|--7--------------|----------------|--7---7------------|-------------------|
|----------------4--|--4---5---5---7--|------4-------5--|--5---5--5---7--|---------4------5--|--5------5---5--7--|

                       i tell...            put me out          on the...           put me out
|-------------------|--------------------|-------------------|-------------------|-------------------|
|------------6------|------7-------------|-------------------|------------7---9--|-------------------|
|--7---7------------|--------------------|--7---7--7--5---4--|--4----------------|--7---7--7--6---4--|
|---------4------5--|--5------5---5---7--|-------------------|-----0---5---------|-------------------|

   on my feet            put me out          put me out
|---------------------|-------------------|------------------|-------------------|-------------------------|
|--------------7---9--|-------------------|-----------7---9--|-------------------|-----------------7---/9--|
|--(4)----------------|--7---7--7--6---4--|--4---------------|--7---7--7--6---4--|--(4)---4----------------|
|--------0--5---------|-------------------|-----0--5---------|-------------------|-----------0--5----------|

   all your...         suck it up               throw it...           shrug it off        there's...
|-------------------|------------------------|---------------------|-------------------|---------------------|
|-------------------|-----7------------------|--------------6------|-----------7---/9--|--------------6------|
|--7---7-----7---7--|------------------------|--7-----7------------|-------------------|--7-----7------------|
|-------------------|--5--------5---5--6--7--|-----------4------5--|--5-----5----------|-----------4------5--|

   i don't...              you keep...      ain't your...       rough...
|----------------------|-----------------|-------------------|-----------------------|-------------|
|----------------------|--------------6--|------7------------|-----------------------|-----7---/9--|
|----------------------|--7-----7--------|-------------------|--7-----7--6--7--5--4--|-------------|
|--5-----5---5--5---7--|-----------4-----|--5------5---5--7--|-----------------------|--5----------|

   tough...                                    rich...
|-----------------------|-------------------|-------------------|----------------------|-------------------|
|-----------------------|-----------7---/9--|-------------------|---------------7---9--|-------------------|
|--7-----7--6--7-----4--|--4----------------|--7---7--6--7---4--|--4---4---------------|--7---7--6--7---4--|
|-----------------------|--------5----------|-------------------|---------0--5---------|-------------------|

                          i'll never...         beast of...            i'll never...     beast of...
|----------------------|---------------------|----------------------|-----------------|-------------------|
|---------------7---9--|---------------6-----|------7---------------|--------------6--|------7------------|
|--4---4---------------|--7---7--------------|----------------------|--7-----7--------|-------------------|
|---------0--5---------|---------0--4-----5--|--5------5---5--6--7--|-----------4-----|--5------5---5--7--|

   never...       never...                             shh...               i'll never...       beast of...
|--------------|---------------------|--------------|--------------------|-------------------|------------------|
|-----------6--|--------7------------|-----------6--|------7-------------|-------------------|-----------7---9--|
|--7-----------|---------------------|--7-----------|--------------------|--7---7--6--7---4--|--4---------------|
|--------4-----|--5--------5---5--7--|--------4-----|--5-------5---5--7--|-------------------|-----0--5---------|

   i've walked...      my feet...                 well...             you...
|-------------------|--------------------------|-------------------|------------------|-------------------|
|-------------------|-------------------7---9--|-------------------|-----------7---9--|-------------------|
|--7---7--7--6---4--|--(4)---4-----------------|--7---7--7--6---4--|--4---------------|--7---7--7--6---4--|
|-------------------|------------0--5----------|-------------------|-----0--5---------|-------------------|

                          i don't...           beast of...         i need...           i need...
|----------------------|--------------------|-------------------|-------------------|------------------|
|------------7--6---9--|-------------6------|------7------------|------------6------|------------------|
|--(4)---4-------------|--7---7-------------|-------------------|--7---7------------|------------------|
|----------------------|----------4------5--|--5------5---5--7--|---------4------5--|--5-----5---5--7--|

   never...           never...                never...
|------------------|-----------------------|----------------|-------------------|-------------------|
|------------------|-----------------------|--------7---/9--|-------------------|------7------------|
|------------------|--7-----7--6--7--6--4--|--4-------------|--7---7--5---6--4--|--4----------------|
|--5-----5---5--7--|-----------------------|-----5----------|-------------------|---------5---5--7--|

|-------------------|---------------|----------------|-------------|
|------------6------|--7------------|---------6------|-------------|
|--7---7------------|---------------|--7-------------|-------------|
|---------4------5--|-----5---5--7--|------4------5--|--5---5---5--|
Composição de Keith Richards / Mick Jagger
Colaboração e revisão:
  • valdir júnior
74 exibições

0 comentários

Ver todos os comentários

Conseguiu tocar?

0 Tocaram 0 Ainda não

Grave um vídeo tocando Beast Of Burden e nos envie!

00:00 / 00:00
outros vídeos desta música
repetir qualidade Automático
Outros vídeos desta música
00:00 / 00:00
Automático

Cifra Club Pro

Aproveite o Cifra Club com benefícios exclusivos e sem anúncios
Cifra Club Pro
Aproveite o Cifra Club com benefícios exclusivos e sem anúncios
OK