Cifra Club

Love Is The Law

The Seahorses

Cifra: Versão 4 (violão e guitarra)
Selo Cifra Club: esta cifra foi revisada para atender aos critérios oficiais da nossa Equipe de Qualidade.
tom: C#m
I'm sure these are right, but they are off the top of my head
E|------| 244322-|
B|-------| 224442-|
G|-------| 254232-|
C#7 ----- 446464-|
E|-------| 222454-|
C#|------| 446664-|
Bsus4 --- 799977-|
B2 ------ 799877-|
Asus4 --- 577755-|
E|-------| 577655-|
B|------| 466544-|
G#7sus4 - 464644
A2 ------ 542255

O.K this is an easy basis for the song. It's my first tab, so if
there's any mistakes, then tell me and i'll corrrect them. I'll only
tab the first half of the song, which is the same as the single (i think),
because it will take me far too long to tab the 4 minute solo. There
are lots of fills in the song and you will probably have to listen hard
to the  recording to get the timing right. If you can't play the fills,
then don't even attempt the solo, when I post it.

 [INTRO] (x2) - The best intro ever!!!
E|----------------------------------------------------------------------|
B|------------------------------------3p2p0-----------------------------|
G|------------2----------0-----2------------0h2---2--------2-----2------|
D|--5p4p0------------0h2------------------------------------------------|
A|--------0h3---0----------0h3---0--------------0------3b4---4p5---3p0--|
E|----------------------------------------------------------------------|

 [Verse 1]
 F#                                                    (FILL 1)
 We lived in a dogfish egg case, you can barely call it home,
E|-----------------------------------------------------------------------|
B|-----------------------------------------------------------2-----------|
G|-------------------------------------------------------1/4----4-2p0----|
D|-------------------------------------------------------------------2p0-|
A|-----------------------------------------------------------------------|
E|-----------------------------------------------------------------------|

 B [FILL 2]
 sorry little lot, no roof on top
E|---------------------5----5-|
B|------------2--------5----5-|
G|------------2----5h6---5h6--|
D|-2----------2---------------|
A|----------------------------|
E|----------------------------|

 F#                   [FILL 1]
 but the fish left us alone.
 D [FILL3]                         C#7                  F
 Try a little more, said the girl next door, it's time to roam.
E|------------------5--------0-|
B|-----------1--------4------0-|
G|-----------0----------4------|
D|-----------2--2/4-------4----|
A|-3---------------------------|
E|-----------------------------|

 [FILL 4]
E|---------------------------------------------------------------------|
B|---------------------------------------------------------------------|
G|---------------------------------------------------------------------|
D|--2p0-0--------------------------------------------------------------|
A|--------2p0-0--------------------------------------------------------|
E|--------------3b4p0--------------------------------------------------|

[VERSE 2] - Chords - as [VERSE 1] - All fills are the same during 2nd verse

Mad Lizzy crumbs, blind cobblers, were a sight to behold,
she was a rum old slapper and we always tried to get her
pants off when she phoned.
Left her cap by the sink, it's not what you think, oh take me home.
[FILL 1]

 [Chorus 2]
 F#                           [FILL 5]
 Now we know where we're going baby, we can
E|---------------------------------0------------|
B|-----------------------------------0----------|
G|-----------------------------1h2------2p1-----|
D|------------------------------------------4p0-|
A|----------------------------------------------|
E|----------------------------------------------|

 E            [FILL6]    B      [FILL7]
 lay back, and enjoy the ride.
E|-------------------------------------------------|
B|-------------------------------------------------|
G|-------------1-1h2p1-----------------------------|
D|---------------------2--------------2--2h4p2-----|
A|--------------------------------2h4----------4p2-|
E|-------------------------------------------------|

F#                                 [FILL5]
Take in the sights and drown in our senses,
E          [FILL6]  F#
love is the law, so take me deep
B
inside.
[INTRO RIFF x1]

[VERSE 3] - Chords - as [VERSE 1] - All fills are the same as in the 1st verse

Strap-on Sally, chased us down the alley, we feared for our behinds,
Oasis was a shop, with shoes so hot,
they were sure to blow your minds.
Running so fast, I could taste the, oh take me home.

[CHORUS 2] - All fills are same as in the 1st chorus
F#
Now we know where we're going baby, we can
E                       B
lay back, and enjoy the ride.
F#
Take in the sights and drown in our senses,
E                   F#
love is the law, so take me deep
E
inside.......

[BRIDGE] - No guitar after B
E     B
These waters run deep it's clear my little one,
blue velvet star sky not a sound.
The light in your eyes, the smile on your ruby lips,
tells me my lost soul is
E     /C# /Bsus4 /B2 /Asus4 /A /G# /G#7sus4 /G#
found.

 [CHORUS 3] - The key of the song has now changed!
 B                            [FILL8]
 Now we know where we're going baby, we can
E|---------------------------------5-----------|
B|-----------------------------5-----6-----0---|
G|-----------------------------6h7-----7p6---0-|
D|-----------------------------7-------------0-|
A|---------------------------------------------|
E|---------------------------------------------|

 A2         [FILL9]     E       [FILL10]
 lay back and enjoy the ride.
E|-------------------------------------------------|
B|-------------------------------------------------|
G|-------------------------------------------------|
D|-----------4-4h5p4-0-----------------------------|
A|------------------------------------0-0h2p0------|
E|--------------------------------0h2----------2p0-|

B                                  [FILL8]
Take in the sights and drown in our senses,
A2                  B
love is the law, so take me deep
E     /F#
inside

 [FINAL RIFF]
E|------------------------------------3p2p0----------------------------|
B|---------------------------------------------------------------------|
G|---------------------------------------------------------------------|
D|------------2----------0-----2------------0h2---2--------2-----2-----|
A|--5p4p0------------0h2-----------------------------------------------|
E|--------0h3---0----------0h3---0--------------0------3b4---4b5---3p0-|

E|------------------------------------3p2p0------------------------------|
B|-----------------------------------------------------------------------|
G|-----------------------------------------------------------------------|
D|------------2----------0-----2------------0h2---2--------2-----2-------|
A|--5p4p0------------0h2-------------------------------------------------|
E|--------0h3---0----------0h3---0--------------0------3b4---4b5---3b4p0-|
Outros vídeos desta música
    0 exibições
      • ½ Tom
      • Am
      • Bbm
      • Bm
      • Cm
      • C#m
      • Dm
      • Ebm
      • Em
      • Fm
      • F#m
      • Gm
      • G#m
    • Adicionar à lista

    Afinação da cifra

    Afinador online

      0 comentários

      Ver todos os comentários

      Entre para o Cifra Club PRO

      Tenha acesso a benefícios exclusivos no App e no Site

      • Chega de anúncios

      • Badges exclusivas

      • Mais recursos no app do Afinador

      • Atendimento Prioritário

      • Aumente seu limite de lista

      • Ajude a produzir mais conteúdo

      Cifra Club Pro

      Aproveite o Cifra Club com benefícios exclusivos e sem anúncios
      Cifra Club Pro
      Aproveite o Cifra Club com benefícios exclusivos e sem anúncios
      Ops (: Contenido disponible sólo en portugués.
      OK