Cifra Club

I Want The One I Cant Have

The Smiths

Cifra: Principal (violão e guitarra)
Selo Cifra Club: esta cifra foi revisada para atender aos critérios oficiais da nossa Equipe de Qualidade.
tom: G
I Want The One I Can't Have

Verse A
G |---------------------------------|---------------------------------|
D |---------------------------------|---------------------------------|
A |-------------5-3-3---3-3---------|-5---5-5-5-7-5---2---2-2-2-2-2-2-|
E |-3---3-3---3---------------------|---------------------------------|

Verse B                              Verse B End
G |---------------------------------|---------------------------------|
D |---------------------------------|---------------------------------|
A |-3---3-3---3-5-7-5---5-5---5-5-5-|-7---2-2---2-2-2-3-2-3-5---------|
E |---------------------------------|-----------------------------2-2-| 

Chorus                                                                   
G |---------------------------------|---------------------------------| 
D |---------------------------------|---------------2-----------------| 
A |-----------------2-----2---2-0-2-|-3-----3---3-5---5-----5---------| 
E |-5-----5---5-3-5-----------------|-----------------------------5---| 

Chorus End
G |---------------------------------|
D |-------9-----9-----9-----9-------|
A |-5---7---7-7---7-7---7-7---7-7---|
E |---------------------------------|

Order:
[00:04] Verse A | B,End
[00:14] Verse A | B,End,End
[00:27] Chorus 2x | Chorus End 2x
[00:42] Verse B, End
[00:52] Chorus 2x

[01:03] Repeat Above
[02:01] Repeat That Again

[03:01] Chorus End 4x
Outros vídeos desta música
2.630 exibições
    • ½ Tom
    • A
    • Bb
    • B
    • C
    • Db
    • D
    • Eb
    • E
    • F
    • F#
    • G
    • Ab
  • Adicionar à lista

Afinação da cifra

Afinador online

    0 comentários

    Ver todos os comentários

    Conseguiu tocar?

    0 Tocaram 0 Ainda não

    Grave um vídeo tocando I Want The One I Cant Have e nos envie!

    Toque também

    1. Imagem do artista Legião Urbana Tempo Perdido Legião Urbana
    2. Imagem do artista The Cure Boys Don't Cry The Cure
    3. Imagem do artista Talking Heads Psycho Killer Talking Heads
    4. Imagem do artista New Order Bizarre Love Triangle New Order

    Entre para o Cifra Club PRO

    Tenha acesso a benefícios exclusivos no App e no Site

    • Chega de anúncios

    • Mais recursos no app do Afinador

    • Atendimento Prioritário

    • Aumente seu limite de lista

    • Ajude a produzir mais conteúdo

    Cifra Club Pro

    Aproveite o Cifra Club com benefícios exclusivos e sem anúncios
    Cifra Club Pro
    Aproveite o Cifra Club com benefícios exclusivos e sem anúncios
    OK