Cifra Club

Mire

Theatre of Tragedy

Cifra: Principal (violão e guitarra)
Selo Cifra Club: esta cifra foi revisada para atender aos critérios oficiais da nossa Equipe de Qualidade.
tom: C
Normal Tuning

Structure of Mire:
Piano Intro
1X Riff A
1X Riff B
1X Riff A
1X Riff B
1X Riff A
1X Riff B
1X Riff A
2X Riff B
1X Riff C (=Interlude1)
1X Riff D
1X Riff E
1X Riff D
1X Riff E
1X Riff D
1X Riff E
1X Riff D
1X Riff E
4X Riff F (=Interlude2)
1X Riff A
1X Riff B
1X Riff A
1X Riff B
1X Riff A
1X Riff B
1X Riff A
2X Riff B
Piano Outro

The guitar comes in after the Piano Intro

Riff A:
e|---------------|---------------|---------------|--------------]
B|---------------|---------------|---------------|--------------]
G|---------------|---------------|---------------|--------------]
D|------------3--|------------3--|------------3--|------------3-]
A|---------5-----|---------5-----|---------5-----|---------5----]
E|--5---6--------|--5---6--------|--5---6--------|--5---6-------]

Riff B:
e|-----------------------------|-----------------------------]
B|-----------------------------|-----------------------------]
G|-----------------------------|-----------------------------]
D|----------------8------------|----------------8------------]
A|------6--5--6-------6--5--6--|------6--5--6-------6--5--6--]
E|--3--------------------------|--3--------------------------]

Interlude1 (Piano+Bass)
G|------------------------------]
D|------------------------------]
A|-----------------3------------]
E|--3----5----6---------6----5--]

Riff D:
e|----------------------------|------------------------|
B|----------------------------|------------------------|
G|----------------------------|------------------------|
D|-----7--5--7---8--7---------|-----7--5--7---8--7-----|
A|--5------------------8------|--5------------------8--|
E|-----------------------(5)*-|------------------------|
  * The guitar actually doesn't play this one;
    but the bass does, so it may sound strange 
    if you don't play it,when playing alone 

e|----------------------------|------------------------]
B|----------------------------|------------------------]
G|----------------------------|------------------------]
D|-----7--5--7---8--7---------|-----7--5--7---8--7-----]
A|--5------------------8------|--5------------------8--]
E|-----------------------(5)*-|------------------------]

Riff E:
e|---------------------------|------------------------|
B|---------------------------|------------------------|
G|---------------------------|------------------------|
D|-----2-----2---------3--2--|-----2-----2------2--3--|
A|--------3------2-----------|--------3------2--------|
E|--5---------------5--------|--5---------------------|

e|---------------------------|---------------------------]
B|---------------------------|---------------------------]
G|---------------------------|---------------------------]
D|-----2-----2---------3--2--|-----2---------------------]
A|--------3------2-----------|--------5--3---2-----------]
E|--5---------------5--------|--5---------------5--3--5--]

Riff F (Interlude2)
e|-----------------------------------]
B|-----------------------------------]
G|-----------------------------------]
D|---------------7---8-------7-------]
A|----------5------------8-------7---]
E|--1---0----------------------------]
  ( This is the cool part where Raymond is sort of whispering)
Outros vídeos desta música
520 exibições
    • ½ Tom
    • A
    • Bb
    • B
    • C
    • Db
    • D
    • Eb
    • E
    • F
    • F#
    • G
    • Ab
  • Adicionar à lista

Afinação da cifra

Afinador online

    0 comentários

    Ver todos os comentários

    Entre para o Cifra Club PRO

    Tenha acesso a benefícios exclusivos no App e no Site

    • Chega de anúncios

    • Mais recursos no app do Afinador

    • Atendimento Prioritário

    • Aumente seu limite de lista

    • Ajude a produzir mais conteúdo

    Cifra Club Pro

    Aproveite o Cifra Club com benefícios exclusivos e sem anúncios
    Cifra Club Pro
    Aproveite o Cifra Club com benefícios exclusivos e sem anúncios
    OK