Cifra Club

Onde Anda Você

Tiago Nacarato

Cifra: Principal (violão e guitarra)
Tom: E (forma dos acordes no tom de D) Capotraste na 2ª casa
[Intro]

D7(9)  G7(13)  C7M  

Em7  Ebº  Dm7  G6(9)  C  C7M

Parte 1

                   D7(9)         G7(13)
E|-----5-8p7p6p5------x---------------------|
B|-8-8-----------8--5-x-5---5p3-5-5-5-------|
G|------------------5-x-5---------4-4-------|
D|------------------4-x-4---------3-3-------|
A|------------------5-x---------------------|
E|--------------------x---5-------3---------|

Parte 2

           C7M
E|-----3------------------------------------|
B|-3h5---5--0-0---1p0-----------------------|
G|----------0-0-------2p0-------------------|
D|----------2-2-----------2p0---------------|
A|----------3---3-------------3-------------|
E|------------------------------------------|
              ↓   


Parte 3

   Em7      Ebº   Dm7
E|---3--------2----1------------------------|
B|---3--------1----1-1----------------------|
G|-----4--------2--2---2---2p0-2------------|
D|-2-----2--1------0-----0------------------|
A|------------------------------------------|
E|------------------------------------------|

Parte 4

   G6(9)          C               C7M
E|---------0--------------------------------|
B|-------0---0----5--1-------------0--------|
G|-----2-------2--5----2h4p2p0-----0--------|
D|---0------------5------------2p0-2--------|
A|----------------3----------------3--------|
E|-3----------------------------------------|

[Primeira Parte]

         A7(13-)   D7(9)
E por falar em saudade
             G7(13)
Onde anda você
     G7(13-)       C7M
Onde andam os seus olhos
                 Em7
Que a gente não vê
     Ebº        Dm7
Onde anda esse corpo
               G7(13)
Que me deixou morto
    G7(13-)  C7M  Em7
De tanto prazer

         A7(13-)  D7(9)
E por falar em beleza
                G7(13)
Onde anda a canção
          G7(13-)  C7M
Que se ouvia na   noite
                Em7
Dos bares de então
        Ebº     Dm7
Onde a gente ficava
                  G7(13)
Onde a gente se amava
      G7(13-)  Gm7  C7(13)  C7
Em total  solidão

[Primeira Parte]

Parte 1

  A7(13-)  D7(9)     G7(13)  G7(13-)
E|------------------------------------------|
B|-6---------5-5-------5---------4----------|
G|-6---------5-5-------4-4-------4----------|
D|-5---------4---4-----3---3---3---3--------|
A|-----------5------------------------------|
E|-5---------------5-4-3-----3--------------|

Parte 2

  C7M              Em7      Ebº
E|----------------------3-------2-----------|
B|-------0--------------3-------1-----------|
G|-----0---0----------4-------2-------------|
D|---2-------2---2--2-----2-1-----1---------|
A|-3-----------3----------------------------|
E|------------------------------------------|

Parte 3

  Dm7         G7(13)   G7(13-)
E|-1-------1--------------------------------|
B|-1-1-----1-------5-------4----------------|
G|-2---2---2-------4-------4----------------|
D|-0-----0-------3---3---3---3--------------|
A|------------------------------------------|
E|-----------0-3-------3--------------------|

Parte 4

  C7M            Em7
E|----------------3-------------------------|
B|-------0--------3-------------------------|
G|-----0---0------4-------------------------|
D|---2-------2----2-------------------------|
A|-3-----------3----------------------------|
E|------------------------------------------|

Parte 1

  A7(13-)  D7(9)     G7(13)  G7(13-)
E|------------------------------------------|
B|-6---------5-5-------5---------4----------|
G|-6---------5-5-------4-4-------4----------|
D|-5---------4---4-----3---3---3---3--------|
A|-----------5------------------------------|
E|-5---------------5-4-3-----3--------------|

Parte 2

  C7M              Em7      Ebº
E|----------------------3-------2-----------|
B|-------0--------------3-------1-----------|
G|-----0---0----------4-------2-------------|
D|---2-------2---2--2-----2-1-----1---------|
A|-3-----------3----------------------------|
E|------------------------------------------|

Parte 3

  Dm7         G7(13)   G7(13-)
E|-1-------1--------------------------------|
B|-1-1-----1-------5-------4----------------|
G|-2---2---2-------4-------4----------------|
D|-0-----0-------3---3---3---3--------------|
A|------------------------------------------|
E|-----------0-3-------3--------------------|

Parte 5

  Gm7           C7(13)  C7
E|----------------5-----3-------------------|
B|-3-------3------5-----5-------------------|
G|-3-3-----3------3-----3-3-----------------|
D|-3---3-----3------------------------------|
A|----------------3-3---3---3---------------|
E|-3-----3-----3----------------------------|

[Refrão]

         F#m7(5-)        Fm7
Hoje eu saio na noite vazia
         Em7              A7
Numa boemia sem razão de ser
               D7(9)
Na rotina dos bares
                  G7(13)
Que apesar dos pesares
     G7(13-)  E7(13)  E7(13-)  Em7
Me trazem  você

         A7(13-)   F#m7(5-)
E por falar em paixão
               Fm7
Em razão de viver
                Em7         A7
Você bem que podia me aparecer
                 D7(9)
Nesses mesmos lugares
               G7(13)
Na noite, nos bares
     G7(13-)  C7M  A7(13-)
Onde anda  você

[Refrão]

Parte 1

     F#m7(5-)      Fm7
E|-----5-5-----5----4-4-----4---------------|
B|-1-3-5-5-----5----4-4-----4---------------|
G|-----5---5---5----5---5---5---------------|
D|-----4-----4---4--3-----3-----------------|
A|------------------------------------------|
E|------------------------------------------|

Parte 2


  Em7           A7
E|-3-3-----3--------------------------------|
B|-3-3-----3----2-2-----2-------------------|
G|-4---4---4----0-0-----0-------------------|
D|-2-----2---2--2---2---2-------------------|
A|--------------0-----0---0-----------------|
E|------------------------------------------|

Parte 3
 
  D7(9)       G7(13)  G7(13-)  
E|------------------------------------------|
B|-5-5-----5----5-5-------4-----------------|
G|-5-5-----5----4-4-------4-----------------|
D|-4---4---4----3---3---3---3---------------|
A|-5----------------------------------------|
E|-------5---4--3-----3---------------------|

Parte 4

   E7(13)  E7(13-)  Em7  A7(13-)
E|---9------8-------------------------------|
B|---9-9------9------8----6---6-------------|
G|---7---7------7----7----6---6-------------|
D|------------------------5-----5-----------|
A|-7-----7--7-----7--7----------------------|
E|--------------------------5-----5---------|

Parte 1 (com variação)

  F#m7(5-)      Fm7
E|-5-5-----5----4-4-----4-------------------|
B|-5-5-----5----4-4-----4-------------------|
G|-5---5---5----5---5---5-------------------|
D|-4-----4---4--3-----3---------------------|
A|------------------------------------------|
E|------------------------------------------|

Parte 2

  Em7           A7
E|-3-3-----3--------------------------------|
B|-3-3-----3----2-2-----2-------------------|
G|-4---4---4----0-0-----0-------------------|
D|-2-----2---2--2---2---2-------------------|
A|--------------0-----0---0-----------------|
E|------------------------------------------|

Parte 3
 
  D7(9)       G7(13)  G7(13-)  
E|------------------------------------------|
B|-5-5-----5----5-5-------4-----------------|
G|-5-5-----5----4-4-------4-----------------|
D|-4---4---4----3---3---3---3---------------|
A|-5----------------------------------------|
E|-------5---4--3-----3---------------------|

Parte 5

  C7M            A7(13-)
E|------------------------------------------|
B|-------0---------6------------------------|
G|-----0---0-------6------------------------|
D|---2-------2-----5------------------------|
A|-3-----------3----------------------------|
E|-----------------5------------------------|

[Intro]

D7(9)  G7(13)  C7M  

Em7  Ebº  Dm7  G6(9)  C  C7M

[Refrão Final]

         A7(13-)   F#m7(5-)
E por falar em paixão
               Fm7
Em razão de viver
                Em7         A7
Você bem que podia me aparecer
                 D7(9)
Nesses mesmos lugares
               G7(13)
Na noite, nos bares
     G7(13-)  C7M  Fm7/C  C7M/G
Onde anda  você

[Refrão Final]

Parte 1

  D7(9)       G7(13)  G7(13-)  
E|------------------------------------------|
B|-5-5-----5----5-5-------4-----------------|
G|-5-5-----5----4-4-------4-----------------|
D|-4---4---4----3---3---3---3---------------|
A|-5----------------------------------------|
E|-------5---4--3-----3---------------------|

Parte 2

  C7M     Fm7/C  C7M/G
E|----------------0-------------------------|
B|----------1-----0-------------------------|
G|-----0----1-----0-------------------------|
D|---2---2--1-----2-------------------------|
A|-3--------3-----3-------------------------|
E|----------------3-------------------------|



exibições 17.128
Acordes para:
    Colaboração e revisão:
    • Leandro Sandim
    • Alexandre Lopes

    0 comentários

    mostrar mais comentários

    Conseguiu tocar?

    9 tocaram 2 ainda não

    Grave um vídeo tocando Onde Anda Você e mande pra gente!

    00:00 / 00:00
    outros vídeos desta música
    repetir qualidade Automático
    Outros vídeos desta música
    00:00 / 00:00
    Automático
    Capítulos
    • Tocando a Música
    • Apresentação / Equipamentos
    • Acordes Introdução
    • Tocando Introdução
    • Ensinando Introdução
    • Ensinando Introdução - Parte 1 de 4
    • Ensinando Introdução - Parte 2 de 4
    • Ensinando Introdução - Parte 3 de 4
    • Ensinando Introdução - Parte 4 de 4
    • Acordes Primeira Parte
    • Tocando Primeira Parte
    • Ensinando Primeira Parte
    • Ensinando Primeira Parte - Parte 1 de 5
    • Ensinando Primeira Parte - Parte 2 de 5
    • Ensinando Primeira Parte - Parte 3 de 5
    • Ensinando Primeira Parte - Parte 4 de 5
    • Ensinando Primeira Parte - Parte 5 de 5
    • Acordes Refrão
    • Tocando Refrão
    • Ensinando Refrão
    • Ensinando Refrão - Parte 1 de 5
    • Ensinando Refrão - Parte 2 de 5
    • Ensinando Refrão - Parte 3 de 5
    • Ensinando Refrão - Parte 4 de 5
    • Ensinando Refrão - Parte 1 de 5 (variação)
    • Ensinando Refrão - Parte 5 de 5
    • Acordes Refrão Final
    • Tocando Refrão Final
    • Ensinando Refrão Final
    • Ensinando Refrão Final - Parte 1 de 2
    • Ensinando Refrão Final - Parte 2 de 2
    • Encerramento
    OK