Cifra Club

I Wanna Talk About Me

Toby Keith

Cifra: Versão 4 (violão e guitarra)
Selo Cifra Club: esta cifra foi revisada para atender aos critérios oficiais da nossa Equipe de Qualidade.
tom: F
Intro
E|-------------------------------------------------------------------|
B|-------------------------------------------------------------------|
G|----------------------------------------------7-5/7----------------|
D|-----------5---------------3-------------5----7-5/7----------------|
A|-----3-3/7----------1-1/5----------3-3/7------5-3/5----------------|
E|-3/7---------0-3/7-------------3/7---------------------------------|

E|-------------------------------------------------------------------|
B|-------------------------------------------------------------------|
G|----------------------------------------------7-5/3----------------|
D|-----------5---------------3-------------5----7-5/3----------------|
A|-----3-3/7----------1-1/5----------3-3/7------5-3/1----------------|
E|-3/7---------0-3/7-------------3/7---------------------------------|

Verse
Guitar 1
E|-------------------------------------------------------------------|
B|-----------------3-3-3-3-6-6-6-6-----------------------------------|
G|-5-5-5-5---------2-2-2-2-3-3-3-3-----------------------------------|
D|-3-3-3-3-2-2-2-2---------------------------------------------------|
A|---------3-3-3-3---------------------------------------------------|
E|-------------------------------------------------------------------|
X4

Guitar 2
E|-------------------------------------------------------------------|
B|-------------------------------------------------------------------|
G|---------5-5-5-5-7-7-7-7-3-3-3-3-----------------------------------|
D|-3-3-3-3-5-5-5-5-7-7-7-7-3-3-3-3-----------------------------------|
A|-3-3-3-3-3-3-3-3-5-5-5-5-1-1-1-1-----------------------------------|
E|-3-3-3-3-----------------------------------------------------------|
X4

Pre chorus

E|-------------------------------------------------------------------|
B|-------------------------------------------------------------------|
G|-------------------------------------------------------------------|
D|-5-5---------------------------------------------------------------|
A|-5-5---------------------------------------------------------------|
E|-5-3---------------------------------------------------------------|

E|-------------------------------------------------------------------|
B|-------------------------------------------------------------------|
G|----------7-7-3-3--------------------------------------------------|
D|--3-3-3-3-7-7-3-3--------------------------------------------------|
A|--3-3-3-3-5-5-1-1--------------------------------------------------|
E|--3-3-2-2-0-0------------------------------------------------------|

E|-------------------------------------------------------------------|
B|-------------------------------------------------------------------|
G|----------3--------------------------------------------------------|
D|--3-3-3-3-3--------------------------------------------------------|
A|--3-3-3-3-1--------------------------------------------------------|
E|--3-3-2-2----------------------------------------------------------|

E|-------------------------------------------------------------------|
B|-------------------------------------------------------------------|
G|----5--------------------------------------------------------------|
D|-5--5--------------------------------------------------------------|
A|-5--3--------------------------------------------------------------|
E|-5-----------------------------------------------------------------|

Chorus 1

E|-------------------------------------------------------------------|
B|-------------------------------------------------------------------|
G|----------------------------------------------7-5/3----------------|
D|-----------5---------------3-------------5----7-5/3----------------|
A|-----3-3/7----------1-1/5----------3-3/7------5-3/1----------------|
E|-3-3/7---------0-3/7-------------3/7-------------------------------|

Verse

Guitar 1
E|-------------------------------------------------------------------|
B|-----------------3-3-3-3-6-6-6-6-----------------------------------|
G|-5-5-5-5---------2-2-2-2-3-3-3-3-----------------------------------|
D|-3-3-3-3-2-2-2-2---------------------------------------------------|
A|---------3-3-3-3---------------------------------------------------|
E|-------------------------------------------------------------------|
X4

Guitar 2
E|-------------------------------------------------------------------|
B|-------------------------------------------------------------------|
G|---------5-5-5-5-7-7-7-7-3-3-3-3-----------------------------------|
D|-3-3-3-3-5-5-5-5-7-7-7-7-3-3-3-3-----------------------------------|
A|-3-3-3-3-3-3-3-3-5-5-5-5-1-1-1-1-----------------------------------|
E|-3-3-3-3-----------------------------------------------------------|
X4

Pre chorus

E|-------------------------------------------------------------------|
B|-------------------------------------------------------------------|
G|----5--------------------------------------------------------------|
D|-5--5--------------------------------------------------------------|
A|-5--3--------------------------------------------------------------|
E|-5-----------------------------------------------------------------|

E|-------------------------------------------------------------------|
B|-------------------------------------------------------------------|
G|----------7-7-3-3--------------------------------------------------|
D|--3-3-3-3-7-7-3-3--------------------------------------------------|
A|--3-3-3-3-5-5-1-1--------------------------------------------------|
E|--3-3-2-2-0-0------------------------------------------------------|

E|-------------------------------------------------------------------|
B|-------------------------------------------------------------------|
G|----------3--------------------------------------------------------|
D|--3-3-3-3-3--------------------------------------------------------|
A|--3-3-3-3-1--------------------------------------------------------|
E|--3-3-2-2----------------------------------------------------------|

E|-------------------------------------------------------------------|
B|-------------------------------------------------------------------|
G|----5--------------------------------------------------------------|
D|-5--5--------------------------------------------------------------|
A|-5--3--------------------------------------------------------------|
E|-5-----------------------------------------------------------------|

Chorus 2

E|----------------------------------------------------------------------|
B|----------------------------------------------------------------------|
G|----------------------------------------------------------------------|
D|----------------------------------------------------------------------|
A|-----3-0-----1--------------------------------------------------------|
E|-3-7-----0-0----------------------------------------------------------|

E|-------------------------------------------------------------------|
B|-------------------------------------------------------------------|
G|-------------------------------------------------------------------|
D|-------------------------------------------------------------------|
A|-----3-0-----------------------------------------------------------|
E|-3-7-----5-3-2-3---------------------------------------------------|

E|-------------------------------------------------------------------|
B|-------------------------------------------------------------------|
G|-------------------------------------------------------------------|
D|-------------------------------------------------------------------|
A|-----3-0-----------------------------------------------------------|
E|-3-7-----5-3-2-0---------------------------------------------------|

E|-------------------------------------------------------------------|
B|-------------------------------------------------------------------|
G|-------------------------------------------------------------------|
D|-------------------------------------------------------------------|
A|-----3-0-----------------------------------------------------------|
E|-3-7-----5-3-2-3---------------------------------------------------|

Bridge
you, you, you...etc
E|-------------------------------------------------------------------|
B|--6-6-6-6----------------------------------------------------------|
G|--5-5-5-5----------------------------------------------------------|
D|-------------------------------------------------------------------|
A|-------------------------------------------------------------------|
E|-------------------------------------------------------------------|
Played multiple times… I didn’t bother to count sorry... haha L
Outros vídeos desta música
    0 exibições
      • ½ Tom
      • A
      • Bb
      • B
      • C
      • Db
      • D
      • Eb
      • E
      • F
      • F#
      • G
      • Ab
    • Adicionar à lista

    Afinação da cifra

    Afinador online

      0 comentários

      Ver todos os comentários

      Entre para o Cifra Club PRO

      Tenha acesso a benefícios exclusivos no App e no Site

      • Chega de anúncios

      • Badges exclusivas

      • Mais recursos no app do Afinador

      • Atendimento Prioritário

      • Aumente seu limite de lista

      • Ajude a produzir mais conteúdo

      Cifra Club Pro

      Aproveite o Cifra Club com benefícios exclusivos e sem anúncios
      Cifra Club Pro
      Aproveite o Cifra Club com benefícios exclusivos e sem anúncios
      Ops (: Contenido disponible sólo en portugués.
      OK