Cifra Club

Pale enchantress

Tristania

Cifra: Principal (violão e guitarra)
Selo Cifra Club: esta cifra foi revisada para atender aos critérios oficiais da nossa Equipe de Qualidade.
tom: C
Intro
E|------0-----2---3----------|------0-----2---7--------|
B|---------0-----------------|---------0---------------|
G|---------------------------|-------------------------|
D|---2-------------------2---|---2------------------2--|
A|---2-------------------2---|---2------------------2--|
E|---0-------------------0---|---0------------------0--|

E|----------------------------------2--2-----------|
B|----------------------------------3--3-----------|
G|------------5--5-5-5-5------------4--4-----------|
D|-2--2-2-2-2-5--5-5-5-5-2--2-2-2-2-4--4--2--4--5--|
A|-2--2-2-2-2-3--3-3-3-3-2--2-2-2-2-2--2-----------|
E|-0--0-0-0-0------------0--0-0-0-0----------------| (2x)

E|-5~-----5--7--8--7~---5~------------|-5~-------5--7--8--7~---5~-----------------8~-|
B|-----5~--------------------5~---6~--|------5~----------------------5~---6~--5h6----|
G|------------------------------------|----------------------------------------------|
D|------------------------------------|----------------------------------------------|
A|------------------------------------|----------------------------------------------|
E|------------------------------------|----------------------------------------------|

E|----------------------------------2--2-----------|
B|----------------------------------3--3-----------|
G|------------5--5-5-5-5------------4--4-----------|
D|-2--2-2-2-2-5--5-5-5-5-2--2-2-2-2-4--4--2--4--5--|
A|-2--2-2-2-2-3--3-3-3-3-2--2-2-2-2-2--2-----------|
E|-0--0-0-0-0------------0--0-0-0-0----------------| (2x)


    A5     Bb5  G5  A5                        G5  A5       Bb5   G5 
At night                    I kiss the serpent in thy tearrrrrrrrrs
     A5               G5           C5
For years thy sorrow I’ve mourned

E|---------------1-------------------|
B|-----------------------------------|
G|-----------------------------------|
D|---2---2---3---3---2---2---3--5--5-|
A|---2---2---3-------2---2---3-------|
E|---0---0---1-------0---0---1-------|

E|---------------1----------------------|
B|--------------------------------------|
G|--------------------------------------|
D|---2---2---3---3---2---2---3--5--3--5-|
A|---2---2---3-------2---2---3----------|
E|---0---0---1-------0---0---1----------|

E|-------------------------------------------------------------|
B|-------------------------------------------------------------|
G|-------------------------------------------------------------|
D|-2--2-2-2-2--3--2--0--3---3---5--2--2-2-2-3--2--0--0--3--x-x-|
A|-2--2-2-2-2----------------------2--2-2-2-2--------------x-x-|
E|-0--0-0-0-0----------------------0--0-0-0-0--------------x-x-| (2x)

E|----------------------------|
B|----------------------------|
G|----------------------------|
D|-2--2-2-2-2-2-2-2--2--3--3--|
A|-2--2-2-2-2-2-2-2--2--3--3--|
E|-0--0-0-0-0-0-0-0--0--1--1--|

E|---------------------------|
B|---------------------------|
G|---------------------------|
D|-2--2-2-2-2-2-2-2--2--5--4-|
A|-2--2-2-2-2-2-2-2--2-------|
E|-0--0-0-0-0-0-0-0--0-------|

E|---------------------------|
B|---------------------------|
G|---------------------------|
D|-2--2-2-2-2-2-2-2--2--3--3-|
A|-2--2-2-2-2-2-2-2--2--3--3-|
E|-0--0-0-0-0-0-0-0--0--1--1-|

E|---------------------------|
B|---------------------------|
G|---------------------------|
D|-2--2-2-2-2-2-2-2--2--5--4-|
A|-2--2-2-2-2-2-2-2--2-------|
E|-0--0-0-0-0-0-0-0--0-------|

E|------------------------------------------------|
B|------------------------------------------------|
G|-------------------------7-7-7-7-7-7------------|
D|-2-2-2-2-2-2-2-2-2-2-2-2-7-7-7-7-7-7------------|
A|-2-2-2-2-2-2-2-2-2-2-2-2-5-5-5-5-5-5-5--3--5--3-|
E|-0-0-0-0-0-0-0-0-0-0-0-0------------------------|

E|-------------------------------------------------|
B|-------------------------------------------------|
G|-------------------------7-7-7-7-7-7-------------|
D|-2-2-2-2-2-2-2-2-2-2-2-2-7-7-7-7-7-7-------------|
A|-2-2-2-2-2-2-2-2-2-2-2-2-5-5-5-5-5-5-5-5-5-3-3-3-|
E|-0-0-0-0-0-0-0-0-0-0-0-0-------------------------|

E|-------------------------------------------------|
B|-------------------------------------------------|
G|-------------------------7-7-7-7-7-7-------------|
D|-2-2-2-2-2-2-2-2-2-2-2-2-7-7-7-7-7-7-------------|
A|-2-2-2-2-2-2-2-2-2-2-2-2-5-5-5-5-5-5-5--3--5--3--|
E|-0-0-0-0-0-0-0-0-0-0-0-0-------------------------|

E|-------------------------------------------------|
B|-------------------------------------------------|
G|-------------------------7-7-7-7-7-7-------------|
D|-2-2-2-2-2-2-2-2-2-2-2-2-7-7-7-7-7-7-------------|
A|-2-2-2-2-2-2-2-2-2-2-2-2-5-5-5-5-5-5-5-5-5-3-3-3-|
E|-0-0-0-0-0-0-0-0-0-0-0-0-------------------------|

E|---------------1-------------------|
B|-----------------------------------|
G|-----------------------------------|
D|---2---2---3---3---2---2---3--5--5-|
A|---2---2---3-------2---2---3-------|
E|---0---0---1-------0---0---1-------|

E|---------------1-----------------------|
B|---------------------------------------|
G|---------------------------------------|
D|---2---2---3---3---2---2---3--5--3--5--|
A|---2---2---3-------2---2---3-----------|
E|---0---0---1-------0---0---1-----------|

E|--------------------------------------------------------------| 
B|--------------------------------------------------------------| 
G|--------------------------------------------------------------| 
D|-2--2-2-2-2--3--2--0--3--3--5---2--2-2-2-3--2--0--0--3--x-x---| 
A|-2--2-2-2-2---------------------2--2-2-2-2--------------x-x---| 
E|-0--0-0-0-0---------------------0--0-0-0-0--------------x-x---| (2x)

E|----------------------------|
B|----------------------------|
G|----------------------------|
D|-2--2-2-2-2-2-2-2--2--3--3--|
A|-2--2-2-2-2-2-2-2--2--3--3--|
E|-0--0-0-0-0-0-0-0--0--1--1--|

E|---------------------------|
B|---------------------------|
G|---------------------------|
D|-2--2-2-2-2-2-2-2--2--5--4-|
A|-2--2-2-2-2-2-2-2--2-------|
E|-0--0-0-0-0-0-0-0--0-------|

E|---------------------------|
B|---------------------------|
G|---------------------------|
D|-2--2-2-2-2-2-2-2--2--3--3-|
A|-2--2-2-2-2-2-2-2--2--3--3-|
E|-0--0-0-0-0-0-0-0--0--1--1-|

E|---------------------------|
B|---------------------------|
G|---------------------------|
D|-2--2-2-2-2-2-2-2--2--5--4-|
A|-2--2-2-2-2-2-2-2--2-------|
E|-0--0-0-0-0-0-0-0--0-------|

E|------------------------------------------------|
B|------------------------------------------------|
G|-------------------------7-7-7-7-7-7------------|
D|-2-2-2-2-2-2-2-2-2-2-2-2-7-7-7-7-7-7------------|
A|-2-2-2-2-2-2-2-2-2-2-2-2-5-5-5-5-5-5-5--3--5--3-|
E|-0-0-0-0-0-0-0-0-0-0-0-0------------------------|

E|-------------------------------------------------|
B|-------------------------------------------------|
G|-------------------------7-7-7-7-7-7-------------|
D|-2-2-2-2-2-2-2-2-2-2-2-2-7-7-7-7-7-7-------------|
A|-2-2-2-2-2-2-2-2-2-2-2-2-5-5-5-5-5-5-5-5-5-3-3-3-|
E|-0-0-0-0-0-0-0-0-0-0-0-0-------------------------|

E|------------------------------------------------|
B|------------------------------------------------|
G|-------------------------7-7-7-7-7-7------------|
D|-2-2-2-2-2-2-2-2-2-2-2-2-7-7-7-7-7-7------------|
A|-2-2-2-2-2-2-2-2-2-2-2-2-5-5-5-5-5-5-5--3--5--3-|
E|-0-0-0-0-0-0-0-0-0-0-0-0------------------------|

E|-------------------------------------------------|
B|-------------------------------------------------|
G|-------------------------7-7-7-7-7-7-------------|
D|-2-2-2-2-2-2-2-2-2-2-2-2-7-7-7-7-7-7-------------|
A|-2-2-2-2-2-2-2-2-2-2-2-2-5-5-5-5-5-5-5-5-5-3-3-3-|
E|-0-0-0-0-0-0-0-0-0-0-0-0-------------------------|

E5          F5      E5        F5           E5          F5
Tearful I walk with thee           through dusk
F5      G5       E5   F5
Through winds of loooss
   E5      F5      E5      F5
Her beauty and her flood
  E5   F5  G5       E5 F5
Embrace my bleeding heart
E5          F5      E5   F5     E5     F5      
Tearful I fall with thee,    at last
G5      E5    F5   E5        F5      E5     F5
Lead me there to   where thy shadows cast
     E5     F5     G5     E5   F5    E5
They dance      in velvet darkness lost

E|----------------------------------------------------------------|
B|----------------------------------------------------------------|
G|----------------------------------------------------------------|
D|-2--2-2-2-2--3--2--0--3---3---5--2--2-2-2-2-3--2-0---0---3--x-x-|
A|-2--2-2-2-2----------------------2--2-2-2-2-----------------x-x-|
E|-0--0-0-0-0----------------------0--0-0-0-0-----------------x-x-| (2x)
                                                     Rise bleak winterfull moon
E|---------------------------------------|
B|---------------------------------------|
G|-------------------------------------7-|
D|-2-----------------------------------7-|
A|-2-----------------------------------5-|
E|-0-------------------------------------|

E|------------------------------------------------|
B|------------------------------------------------|
G|-------------------------7-7-7-7-7-7------------|
D|-2-2-2-2-2-2-2-2-2-2-2-2-7-7-7-7-7-7------------|
A|-2-2-2-2-2-2-2-2-2-2-2-2-5-5-5-5-5-5-5--3--5--3-|
E|-0-0-0-0-0-0-0-0-0-0-0-0------------------------| (2x)

Nessa parte só toca o baixo

G|-----------------------------------------------------|
D|-----------------------------------------------------|
A|-----------------------------------------------------|
E|-0-0-0-3-3-3-1-1-1-1-3-1-0-0-0-3-3-3-1-1-1-55555-3-1-|

E|----------------------------------2--2-----------|
B|----------------------------------3--3-----------|
G|------------5--5-5-5-5------------4--4-----------|
D|-2--2-2-2-2-5--5-5-5-5-2--2-2-2-2-4--4--2--4--5--|
A|-2--2-2-2-2-3--3-3-3-3-2--2-2-2-2-2--2-----------|
E|-0--0-0-0-0------------0--0-0-0-0----------------| (2x)

E|---5~-----5--7--8--7~---5~-------------|
B|-------5~----------------------5~---6~-|
G|---------------------------------------|
D|---------------------------------------|
A|---------------------------------------|
E|---------------------------------------|

E|---5~-----5--7--8--7~---5~------------------------------------------------|
B|-------5~----------------------5h6--5--3--1--3--1--0--1--0----------------|
G|--------------------------------------------------------------------2--0--|
D|--------------------------------------------------------------------------|
A|--------------------------------------------------------------------------|
E|--------------------------------------------------------------------------|

    A5     Bb5  G5  A5  A5                   G5  A5       Bb5   G5 
In Life                       I kiss the serpent in thy tearrrrrrrrrs
     A5               G5           C5           E5
For years thy sorrow I’ve mourned

Este é o solo que toca no piano no final da musica
E|-0-----0---0-------------------0---0-2---2-2-3-2-|
B|---0-0---0---1-1-1-1-0---0---0---0-----0---------|
G|-----------------------2---0---------------------|
D|-------------------------------------------------|
A|-------------------------------------------------|
E|-------------------------------------------------|varias veses

Ultimo solo
E|-0-----0---0-------------------0---0-2---2-2-3-2-2-0|
B|---0-0---0---1-1-1-1-0---0---0---0-----0------------|
G|-----------------------2---0------------------------|
D|----------------------------------------------------|
A|----------------------------------------------------|
E|----------------------------------------------------|
Termina abafando o ultimo mi.
Outros vídeos desta música
2.291 exibições
    • ½ Tom
    • A
    • Bb
    • B
    • C
    • Db
    • D
    • Eb
    • E
    • F
    • F#
    • G
    • Ab
  • Adicionar à lista

Afinação da cifra

Afinador online

    0 comentários

    Ver todos os comentários

    Entre para o Cifra Club PRO

    Tenha acesso a benefícios exclusivos no App e no Site

    • Chega de anúncios

    • Mais recursos no app do Afinador

    • Atendimento Prioritário

    • Aumente seu limite de lista

    • Ajude a produzir mais conteúdo

    Cifra Club Pro

    Aproveite o Cifra Club com benefícios exclusivos e sem anúncios
    Cifra Club Pro
    Aproveite o Cifra Club com benefícios exclusivos e sem anúncios
    OK