Cifra Club

Smoke Like Ribbons

Ugly Casanova

Cifra: Principal (violão e guitarra)
Selo Cifra Club: esta cifra foi revisada para atender aos critérios oficiais da nossa Equipe de Qualidade.
tom: F
E|E|-------------------------------------------------------------------------------||
                             Smoke Like Ribbons - Ugly Casanova
E|E|-------------------------------------------------------------------------------||
Tabbed by:007ads2

Tuning: Standard, Capo 1

I haven't seen a correct tab to this song, so I decided to learn how to play it by ear and post the tab myself.
I have most of the song down, but the chorus needs a little bit of touching up.

       INTRO - PA Y VARIATIONS OF THESE NOTES
E|---------------------------------------------------------------------------|
B|--1------1------1-----1-----1--------1-------------------------------------|
G|--2------0------2-----2-----2---| OR---0-------------------------------------|
D|--2------2------3-----0-----0--------2-------------------------------------|
A|----------------------------3--------3-------------------------------------|
E|---------------------------------------------------------------------------|
       VERSE - LISTEN FOR STRUME NG PATTERNS
  "Smoke was pulled in ribbons.."
E|---------------------------------------------------------------------------|
B|--0--------------------------0------------------0\-------------------------|
G|--9\-------------------------2/-----------------9\----------| D PEAT---------|
D|--9\-------------------------2/-----------------9\-------------------------|
A|--7\-------------------------0------------------7\-------------------------|
E|---------------------------------------------------------------------------|
       VERSE - WHILE YOU'D  PA YING THE x0220x YOU CAN C  THE SLIDES
E|---------------------------------------------------------------------------|
B|---0----0------0----1------------------------------------------------------|
G|---2/---4------4\---1------------------------------------------------------|
D|---2/---4------4\---1------------------------------------------------------|
A|---0----0------0----0------------------------------------------------------|
E|---------------------------------------------------------------------------|
     CHORUS - AS SOON AS HE SAYS "DIME" PA Y THE FOLLOWING CHORD
  WHEN HE'S C NE B NGING "SMOKE LIKE RIBBONS," DURING THE LITTLE BDA K PA Y
  x7990x
E|---------------------------------------------------------------------------|
B|-----------------------------------0---------------------------------------|
G|---2-------------------------------9---------------------------------------|
D|---0-------------------------------9---------------------------------------|
A|---0-------------------------------7---------------------------------------|
E|---2-----------------------------------------------------------------------|
    CHORUS - RIGHT BEFOD  HE STARTS B NGING "SMOKE LIKE RIBBONS," 
 PA Y THIS LITTLE LEAD PART AS MANY TIMES AS ON THE DC ORDING
E|--------13-------------------------------------------------------------------|
B|---------------------------------------------------------------------------|
G|---------------------------------------------------------------------------|
D|---------------------------------------------------------------------------|
A|---------------------------------------------------------------------------|
E|---------------------------------------------------------------------------|
Outros vídeos desta música
    4 exibições
      • ½ Tom
      • A
      • Bb
      • B
      • C
      • Db
      • D
      • Eb
      • E
      • F
      • F#
      • G
      • Ab
    • Adicionar à lista

    Afinação da cifra

    Afinador online

      0 comentários

      Ver todos os comentários

      Conseguiu tocar?

      0Tocaram0Ainda não

      Grave um vídeo tocando Smoke Like Ribbons e nos envie!

      Toque também

      1. Imagem do artista Modest MouseFloat On Modest Mouse
      2. Imagem do artista Built To SpillCarry The Zero Built To Spill
      3. Imagem do artista Mimicking BirdsRemnants And Pictures Mimicking Birds
      4. Imagem do artista CalifoneDont Let Me Die Nervous Califone

      Entre para o Cifra Club PRO

      Tenha acesso a benefícios exclusivos no App e no Site

      • Chega de anúncios

      • Badges exclusivas

      • Mais recursos no app do Afinador

      • Atendimento Prioritário

      • Aumente seu limite de lista

      • Ajude a produzir mais conteúdo

      Cifra Club Pro

      Aproveite o Cifra Club com benefícios exclusivos e sem anúncios
      Cifra Club Pro
      Aproveite o Cifra Club com benefícios exclusivos e sem anúncios
      Ops (: Contenido disponible sólo en portugués.
      OK