Cifra Club

Beautiful World Planitb Acoustica Mix

Utada Hikaru

Cifra: Principal (violão e guitarra)
Selo Cifra Club: esta cifra foi revisada para atender aos critérios oficiais da nossa Equipe de Qualidade.
tom: D
E|-0---1---0---0---|
B|-1---1---1---0---|
G|-2---2---0---0---|
D|-2---3---2---x---|
A|-0---x---x---2---|
E|-x---x---x---3---|

2nd guitar repeats this at the same time. (No capo)

E|-5-----5-6-----6-5-----5-0-----0-|
B|---6-------6-------6-------6-----|
G|-----5-------5-------5-------5---|
D|---------------------------------|
A|---------------------------------|
E|---------------------------------|


1st and 2nd verse. (No capo)

E|---------------------------------|
B|---------------------------------|
G|-7/9-9-9-9-9-9-9-7/9-9-9-9-9-9-9-|
D|-5/7-7-7-7-7-7-7-5/7-7-7-7-7-7-7-|
A|---------------------------------|
E|---------------------------------|

E|---------------------------------|
B|---------------------------------|
G|-7-7-7-7-7-7-7-7-9-9-9-9-9-9-9-9-|
D|-5-5-5-5-5-5-5-5-7-7-7-7-7-7-7-7-|
A|---------------------------------|
E|---------------------------------|

E|---------------------------------|
B|---------------------------------|
G|-7/9-9-9-9-9-9-9-7/9-9-9-9-9-9-9-|
D|-5/7-7-7-7-7-7-7-5/7-7-7-7-7-7-7-|
A|---------------------------------|
E|---------------------------------|

E|-------------------------------------------------|
B|-------------------------------------------------|
G|-11-11-11-11-11-11-11-11-14-14-14-14-14-14-14-14-|
D|-9--9--9--9--9--9--9--9--12-12-12-12-12-12-12-12-|
A|-------------------------------------------------|
E|-------------------------------------------------|

[Pre-Chorus]

E|-0~--------------------------------|
B|-0~--------------------------------|
G|-0~----------------10-----12-------|
D|-2~----------------10-----12-------|
A|-2~----------------8------10-------|
E|-0~---0-3-5-7~---------------------|

E|-0~------------------------0~------|
B|-0~------------------------0~------|
G|-0~----------------10------0~------|
D|-2~----------------10------2~------|
A|-2~----------------8-------2~------|
E|-0~---0-3-5-7~-----------0-0~------|

Build Up (continuos strumming)

E|-------------------|
B|-------------------|
G|-7-7-7-7-7-7-7-7-7-|
D|-x-x-x-x-x-x-x-x-x-|
A|-5-5-5-5-5-5-5-5-5-|
E|-------------------|

Outro (Repeat)

E|-----------------------------------------|
B|-----------------------------------------|
G|-----------------------------------------|
D|--7---7---7---7--7-----7---7---7---7--7--|
A|-5---5---5---5--5-5---5---5---5---5--5-5-|
E|-----------------------------------------|


************************************

| x  Dead note
| /  Slide up
| ~  Vibrato
Outros vídeos desta música
24 exibições
    • ½ Tom
    • A
    • Bb
    • B
    • C
    • Db
    • D
    • Eb
    • E
    • F
    • F#
    • G
    • Ab
  • Adicionar à lista

Afinação da cifra

Afinador online

    0 comentários

    Ver todos os comentários

    Entre para o Cifra Club PRO

    Tenha acesso a benefícios exclusivos no App e no Site

    • Chega de anúncios

    • Mais recursos no app do Afinador

    • Atendimento Prioritário

    • Aumente seu limite de lista

    • Ajude a produzir mais conteúdo

    Cifra Club Pro

    Aproveite o Cifra Club com benefícios exclusivos e sem anúncios
    Cifra Club Pro
    Aproveite o Cifra Club com benefícios exclusivos e sem anúncios
    OK