Cifra Club

Nijikan Dake No Vacance

Utada Hikaru

Cifra: Principal (violão e guitarra)
Selo Cifra Club: esta cifra foi revisada para atender aos critérios oficiais da nossa Equipe de Qualidade.
tom: Eb
E|---------10-------|---------------|-----------8--------|-------------5--|--------------0-|
B|-----11-----11----|------------9--|------10-----10-----|--------5-------|-----3-------1--|
G|----10-------10---|---------9-----|-----9---------9----|------5---------|----3-3-----1---|
D|---12---------12--|-----10--------|---10-----------10--|----7-----------|---3---3--------|
A|--10--------------|--11-----------|--8-----------------|--5-------------|----------------|
E|------------------|---------------|--------------------|----------------|--3--------0----|

                              [Verse]
E|--------------------------|--------------|-------------|----------|--------|
B|--------10-------------5--|--11----------|---9---------|--10------|---6----|
G|-------9--9----------5----|--10----------|---9---------|---9------|---5----|
D|-----10----10------7------|--12----------|--10---------|--10------|---7----|
A|----8--------7-6-5--------|--10----------|--11---------|---8------|---5----|
E|--------------------------|--------------|-------------|----------|--------|
                                  KUROZETTO   no oku de      nemuru   C D SU

E|--------|-------------|----------|--------|
B|--11----|---9---------|--10------|---6----|
G|--10----|---9---------|---9------|---5----|
D|--12----|--10---------|--10------|---7----|
A|--10----|--11---------|---8------|---5----|
E|--------|-------------|----------|--------|
        Hakareru hi wo    matsu    HAI HIIRU

E|--------|-------------|----------|--------|--------|-------------|----------|
B|--11----|---9---------|--10------|---6----|--11----|------9------|--10------|
G|--10----|---9---------|---9------|---5----|--10----|------9------|---9------|
D|--12----|--10---------|--10------|---7----|--12----|-----10------|--10------|
A|--10----|--11---------|---8------|---5----|--10----|-----11------|---8------|
E|--------|-------------|----------|--------|--------|-------------|----------|
        Monogatari  no    wakiyaku  ni natte      daibu tsukihi   ga tatsu
Outros vídeos desta música
18 exibições
    • ½ Tom
    • A
    • Bb
    • B
    • C
    • Db
    • D
    • Eb
    • E
    • F
    • F#
    • G
    • Ab
  • Adicionar à lista

Afinação da cifra

Afinador online

    0 comentários

    Ver todos os comentários

    Entre para o Cifra Club PRO

    Tenha acesso a benefícios exclusivos no App e no Site

    • Chega de anúncios

    • Mais recursos no app do Afinador

    • Atendimento Prioritário

    • Aumente seu limite de lista

    • Ajude a produzir mais conteúdo

    Cifra Club Pro

    Aproveite o Cifra Club com benefícios exclusivos e sem anúncios
    Cifra Club Pro
    Aproveite o Cifra Club com benefícios exclusivos e sem anúncios
    OK