Cifra Club

Quando Amanhecer

Vanessa da Mata

Cifra: Principal (violão e guitarra)
tom: A
Intro: 

 F#M7  C#7/9- C#7(9#) F#M7
B-2---3----5--2--| (2x)

E|------------5------------------------------------------------------------5---------------------------------|
B|-7--7--5-7--------------5---------7--7---5-7--5--------------7--7--5-7---------------3-------2---3---5--2--|
G|---------------4-6---------------------------------6--2--------------------4-6-----------------------------|
D|-----------------------------------------------------------------------------------------------------------|
A|-----------------------------------------------------------------------------------------------------------|
E|-----------------------------------------------------------------------------------------------------------|

E|------------------------------------------------------0-1-0-1--------------------------------------------------------|
B|--2-2-0-2--3---5---2-2-0-2--3---5---2-2-0-2--3---2-2--2-2-2-2----2-2-0-2--3---5---2-2-0-2--3---5---2-2-0-2--3--5--7--|
G|---------------------------------------------------------------------------------------------------------------------|
D|---------------------------------------------------------------------------------------------------------------------|
A|---------------------------------------------------------------------------------------------------------------------|
E|---------------------------------------------------------------------------------------------------------------------|

E|--5--4-4--2-2---0---2--0-0--------------------------------------------------------------------5----4--------|
B|-----------------------------3-3---2---3-2-0--2-0----0----0-2-3-2-0-----0-2-3-5-7-5---0-2-3-5-----------5---|
G|---------------------------------------------------2-----------------2--------------------------------------|
D|------------------------------------------------------------------------------------------------------------|
A|------------------------------------------------------------------------------------------------------------|
E|------------------------------------------------------------------------------------------------------------|

GM7/B A7(13) D7M   D6
Quando amanhecer será
GM7/B A7(13)  D7M
Para iluminar você
GM7/B A7(13) D7M G7M
Vai anoitecer o dia
F#7M C#7/9- C#7(9#) F#7M
Se   não     vi       er
F#7M C#7/9- C#7(9#)
Mas se for presente
F#7M C#7/9- C#7(9#)
Tudo ilumina   rá
F#7M       C#7/9-   F#7M C#6/F F4 C#6/F F4
Meu humor, meu coração
F#7M    C#7/9- C#7(9#)
Como deve ser    se
F#7M        C#7/9-    C#7(9#)
Ser como Deus quer    for
F#7M     C#7/9-  Bm      Bm7
Milagre, resignação
Bm7        E6/B
Roupa colorida
  A6 Asus4   A7M
Alegria    às    vistas,
D7M        G7M      Bm7    G#m7b5  C#7/9-
Indescência, in  dis cri   ção
Bm7             E7
Seu cheiro me achando
Bm7             E7
Minh'alma perdida
Bm7         E6/B    A7M
Direi que é céu no chão

GM7/B   A7(13)   D7M   D6
Quando anoitecer será
GM7/B A7(13)  D7M
Para te fazer dormir
GM7/B    A7(13)   D7M        G7M
Estrelas que nem brilhan....tes
F#7M C#7/9- C#7(9#) F#7M
Pra    te     ves    tir
F#7M    C#7/9-     C#7(9#)
Vai saber que Deus fez
F#7M    C#7/9-     C#7(9#)
As damas da  noi   te
F#7M       C#7/9-   F#7M C#6/F F4 C#6/F F4
Preparando o seu buquê
F#7M    C#7/9-     C#7(9#)
Como vai dizer      não
F#7M    C#7/9-       C#7(9#)
Se tudo o que eu ve   jo
F#7M     C#7/9-    Bm      Bm7
Está aqui pra te servir
Bm7        E6/B
A mais bela roupa
 A6 Asus4   A7M
Roupa de ir à festa
D7M        G7M      Bm7 G#m7b5  C#7/9-
Coloquei pra te espera....r
Bm7             E7
Disco na vitrola
Bm7             E7
Uma vela acesa
Bm7         E6/B    A7M
E a lua mais cheia

GM7/B      A7(13)    D7M   D6
Quando o sol nascer será
GM7/B A7(13)  D7M
Para desenhar você
GM7/B    A7(13)   D7M   G7M
Ou será você que vi     rá
F#7M  C#7/9-   F#7M
pro    sol    nascer
00:00 / 00:00
Outros vídeos desta música
Repetir
Outros vídeos desta música
Composição de Gilberto Gil / Vanessa da Mata
Colaboração e revisão:
  • Bruno Siqueira
2.317 exibições
    • ½ Tom
    • A
    • Bb
    • B
    • C
    • Db
    • D
    • Eb
    • E
    • F
    • F#
    • G
    • Ab
  • Adicionar à lista

    0 comentários

    Ver todos os comentários

    Conseguiu tocar?

    0 Tocaram 0 Ainda não

    Grave um vídeo tocando Quando Amanhecer e nos envie!

    Entre para oCifra Club PRO

    Tenha acesso a benefícios exclusivos no App e no Site

    • Chega de anúncios

    • Prioridade de compra em lançamentos

    • Mais recursos no app do Afinador

    • Atendimento Prioritário

    • Descontos nos produtos Cifra Club

    • Ajude a produzir mais conteúdo

    00:00 / 00:00

    Cifra Club Pro

    Aproveite o Cifra Club com benefícios exclusivos e sem anúncios
    Cifra Club Pro
    Aproveite o Cifra Club com benefícios exclusivos e sem anúncios
    OK