Cifra Club

Habla Si Puedes

Violetta

Cifra: Principal (violão e guitarra)
tom: G
Intro 2x:   C G D C G D

E|8-8-8-8/10-10-10-10----------------|
B|8-8-8-8/10-10-10-10----------------|
G|--------12-12-12-12----------------|
D|-----------------------------------|
A|-----------------------------------|
E|-----------------------------------|

          C             D
Si es que no puedes hablar
          C             D
no te atrevas a volver
          C             D
si te quieres ocultar
          C             D
tal vez te podria ver
Em   D C   G             C
y el amor que no sabe a quien y que
G          C
hablará si tu verdad
    Em            F
te abrazara otra vez

Em         C
Habla si puedes
G          C
grita que sientes
Em            C
dime a quien quieres
G           C
y te hace feliz

C G D
(Solo)
      C            D
Si no puedes escuchar
       C             D
aunque insistas hablaré
        C          D
si lo quieres mírame
       C         D
y tus ojos hablaran tal vez
Em  D  C  G          C
sentiras el amor e iras tras el
G            C
hablaras si tu verdad
     Em           F
te abrazará otra vez

Em         C
Habla si puedes
G          C
grita que sientes
Em             C
dime a quien quieres
G           D
y te hace feliz
Em         C
habla si puedes
G         C
grita si temes
Em             C
dime a quien quieres
G           D
y te hace feliz


E|------------------------------------------------------------------------10-11-12b----|
B|---------------------------------------------------------------10-11-12--------------|
G|------------------------------------------------------10-11-12-----------------------|
D|---------------------------------------------10-11-12--------------------------------|
A|------------------------------------10-11-12-----------------------------------------|
E|10-11-12b15/14b-12-14b-12-14b-12-14b-------------------------------------------------|




Em         G          C       G
.(CUERDAS)... abrazaméeeeeeeee..
C            Em             F
quiero despertarme y entender (solo em cima)

Em         C
habla si puedes
G         C
grita si temes
Em              C
dime a quien quieres
G             D
y que haces aquì
Em         C
habla si puedes
G            C
grita que sientes
Em             C
dime a quien quieres
G           C
y te hace feliz
G           C
y te hace feliz

( C G D )
00:00 / 00:00
Outros vídeos desta música
Repetir
Outros vídeos desta música
Composição de Ezequiel Bauza / Pablo Correa / Sebastián Mellino
Colaboração e revisão:
  • Suzana Cavalcante
  • sabrina olioveira
  • Gabriela
125.665 exibições
    • ½ Tom
    • A
    • Bb
    • B
    • C
    • Db
    • D
    • Eb
    • E
    • F
    • F#
    • G
    • Ab
  • Adicionar à lista

    0 comentários

    Ver todos os comentários

    Conseguiu tocar?

    39 Tocaram 4 Ainda não

    Grave um vídeo tocando Habla Si Puedes e nos envie!

    Entre para oCifra Club PRO

    Tenha acesso a benefícios exclusivos no App e no Site

    • Chega de anúncios

    • Prioridade de compra em lançamentos

    • Mais recursos no app do Afinador

    • Atendimento Prioritário

    • Descontos nos produtos Cifra Club

    • Ajude a produzir mais conteúdo

    00:00 / 00:00

    Cifra Club Pro

    Aproveite o Cifra Club com benefícios exclusivos e sem anúncios
    Cifra Club Pro
    Aproveite o Cifra Club com benefícios exclusivos e sem anúncios
    OK