Cifra Club

Maranata / Lágrimas de Fogo (pot-pourri)

Vitohria Sounds

Cifra: Principal (violão e guitarra)
Selo Cifra Club: esta cifra foi revisada para atender aos critérios oficiais da nossa Equipe de Qualidade.
tom: E
[Intro] E  G#m  F#m  B/D#
        E  G#m  F#m

E
Maranata estamos clamando
C#m7
Maranata estamos clamando
G#m7
Maranata estamos clamando
F#m
Vem Jesus

E
Maranata estamos clamando
C#m7
Maranata estamos clamando
G#m7
Maranata estamos clamando
F#m
Vem Jesus

[Solo] E7M  C#m9  G#m  B/D#

      E
Vamos yeshua desce
C#m7                  G#m7
Rasga o céus e enche esse lugar
          B/D#
Com sua glória
           E
Queremos o teu reino
C#m7
Tua justiça
       G#m
Te preparamos um lugar
      B/D#
Pra reinar

[Solo] E  E9  E4  E

[Tab - Solo]

E|-------------------------------------------------|
B|-9-9-9-9--7-7-7-7--9-9-9-9---------10-10-10-10-10|
G|---------------------------9-9-9-9---------------|
D|-------------------------------------------------|
A|-------------------------------------------------|
E|-------------------------------------------------|

E|-------------------------------------------------|
B|10-10-10--9-9-9-9-9-9----------------------------|
G|-------------------------------------------------|
D|-------------------------------------------------|
A|-------------------------------------------------|
E|-------------------------------------------------|

     A9                      B
Ele vem sobre a crista das ondas
      C#m7                G#m
Com poder e justiça em suas mãos
    A9
Plenamente conhecerei
     B                C#m7   G#m
Finalmente eu verei o Cristo

  A           B
Estou aqui disposto te amar
  C#m7      G#m
Estou aqui disposto a chorar
  A          B
Estou aqui disposto a queimar
C#m7         G#m
Mais, mais, mais

[Solo] A  E  C#m7  B

[Tab - Solo]

E|-----------7-----------------9-----------------7-|
B|-7h9-9-9-9---9-9-9-7h9-9-9-9---9-9-9-7h9-9-9-9--9|
G|-------------------------------------------------|
D|-------------------------------------------------|
A|-------------------------------------------------|
E|-------------------------------------------------|

E|-11-12-11-12-11-12-11----------------------------|
B|----------------------12-12----------------------|
G|-------------------------------------------------|
D|-------------------------------------------------|
A|-------------------------------------------------|
E|-------------------------------------------------|

A
Maranata estamos clamando
F#m7
Maranata estamos clamando
C#m7
Maranata estamos clamando
E/G#
Vem Jesus
00:00 / 00:00
Outros vídeos desta música
Repetir
Outros vídeos desta música
130.130 exibições
    • ½ Tom
    • A
    • Bb
    • B
    • C
    • Db
    • D
    • Eb
    • E
    • F
    • F#
    • G
    • Ab
  • Adicionar à lista

Afinação da cifra

Afinador online

    0 comentários

    Ver todos os comentários

    Conseguiu tocar?

    8 Tocaram 1 Ainda não

    Grave um vídeo tocando Maranata / Lágrimas de Fogo (pot-pourri) e nos envie!

    Entre para o Cifra Club PRO

    Tenha acesso a benefícios exclusivos no App e no Site

    • Chega de anúncios

    • Mais recursos no app do Afinador

    • Atendimento Prioritário

    • Aumente seu limite de lista

    • Ajude a produzir mais conteúdo

    00:00 / 00:00

    Cifra Club Pro

    Aproveite o Cifra Club com benefícios exclusivos e sem anúncios
    Cifra Club Pro
    Aproveite o Cifra Club com benefícios exclusivos e sem anúncios
    OK