Cifra Club

Shut Up and Dance With Me

Walk The Moon

Cifra: Principal (violão e guitarra)
tom: B (forma dos acordes no tom de C) Afinação: Eb Ab Db Gb Bb Eb
INTRO:
|-----8-------8-------8------8------8----8-----------------------| 
|---8-------8--------------8------8------------------------------| 
|-9------10------10------9------7------7-------------------------| 
|----------------------------------------------------------------| 
|----------------------------------------------------------------| 
|----------------------------------------------------------------| 

C5
Oh don't you dare look back 
C5
Just keep your eyes on me 
C5
I said you're holding back 
C5
She said shut up and dance with me 
              
C5
This woman is my destiny 
C5
She said oh oh oh   
     A5     G5
Shut up and dance with me 

( F5  G5   A5  G5  / F5  G5   C5  G/B G5 )

VERSO E PONTE:
|----------------------------------------------------------------| 
|----------------------------------------------------------------| 
|----------------------------------------------------------------| 
|-5--0-5--0-5--5---5-5----5--0-5--0-5--0-5---5-5-----------------| 
|----------------------------------------------------------------| 
|----------------------------------------------------------------|
      
          F5    G5          A5  G5
We were victims of the night  
           F5     G5            C5  G/B  G5
The chemical, physical, kryptonite  
                F5    G5             A5  G5
Helpless to the bass and faded light  
           F5               G5            C5  G/B  G5
Oh we were bound to get together, Bound to get together  
    F5                C5       G/B       G5
She took my arm    I don't know how it happened 
F5                        G5
We took the floor and she said  

              C5           F
Oh don't you dare look back 
                Am      G
Just keep your eyes on me 
               C5           F
I said you're holding back  
              Am      G
She said shut up and dance with me 
  
C5       F       Am    G
This woman is my destiny 
         C5     F
She said oh oh oh  
      Am       G
Shut up and dance with me  

( F5  G5   A5  G5 )

VERSO E PONTE:
|----------------------------------------------------------------| 
|----------------------------------------------------------------| 
|----------------------------------------------------------------| 
|-5--0-5--0-5--5---5-5----5--0-5--0-5--0-5---5-5-----------------| 
|----------------------------------------------------------------| 
|----------------------------------------------------------------|
  
            F5             G5           A5  G5
A backless dress and some beat up sneaks  
                F5     G5            C5  G/B  G5
My discothèque, Juliet teenage dream 
                F5           G5         A5  G5
I felted it in my chest when she looked at me 
               F5               G5            C5  G/B  G5
I knew we were bound to be together, Bound to be together  

    F5
She took my arm  
     C5       G/B       G5
I don't know how it happened  
F5                        G5
We took the floor and she said   

              C5           F
Oh don't you dare look back 
                Am      G
Just keep your eyes on me 
               C5           F
I said you're holding back  
              Am      G
She said shut up and dance with me  
C5       F       Am    G
This woman is my destiny 
         C5     F
She said oh oh oh  
      Am       G
Shut up and dance with me  

SOLO:
|----------------------------------------------------------------| 
|----8-5~---8b10r8--5b6r6----------8--5~--8b10r8/13--13~---------| 
|-5-----------------------7-5-5~---------------------------------| 
|----------------------------------------------------------------| 
|----------------------------------------------------------------| 
|----------------------------------------------------------------| 

|---------------------------------------12-----15-----17--20~----| 
|-------------------------13-----15--13-----15-----17------------| 
|-----------12-----14--12-----14---------------------------------| 
|----14--12-----14-----------------------------------------------| 
|-15-------------------------------------------------------------| 
|----------------------------------------------------------------| 

|----------------------------------------------------------------| 
|-1/3--1/3---3/5--3/5---5/6--5/6---6/8--6/8--6/8~----------------| 
|----------------------------------------------------------------| 
|----------------------------------------------------------------| 
|----------------------------------------------------------------| 
|----------------------------------------------------------------|

F5
Deep in her eyes 
C5       G/B       G5
I think I see the future 
F5         C5       G/B          G5
I realize this is my last chance 

    F5
She took my arm  
     C5       G/B       G5
I don't know how it happened  
F5                        G5
We took the floor and she said  

Solo Intro:
C5
Oh don't you dare look back 
C5
Just keep your eyes on me 
C5
I said you're holding back 
C5
She said shut up and dance with me  
C5
This woman is my destiny 
C5
She said oh oh oh   
     A5     G5
Shut up and dance with me 

              C9           F
Oh don't you dare look back 
                Am      G
Just keep your eyes on me 
               C9           F
I said you're holding back 
              Am      G
She said shut up and dance with me  
C9       F       Am    G
This woman is my destiny 
        C9     F
She said oh oh oh   
      Am       G
Shut up and dance with me  

C9   F   Am          G
Oh oh oh shut up dance with me 
C9   F   Am          G
Oh oh oh shut up dance with me
00:00 / 00:00
Outros vídeos desta música
Repetir
Outros vídeos desta música
Composição de PedroVasquez
Colaboração e revisão:
  • Pedro Tavares
18.377 exibições
    • ½ Tom
    • A
    • Bb
    • B
    • C
    • Db
    • D
    • Eb
    • E
    • F
    • F#
    • G
    • Ab
  • Adicionar à lista

    0 comentários

    Ver todos os comentários

    Entre para oCifra Club PRO

    Tenha acesso a benefícios exclusivos no App e no Site

    • Chega de anúncios

    • Prioridade de compra em lançamentos

    • Mais recursos no app do Afinador

    • Atendimento Prioritário

    • Descontos nos produtos Cifra Club

    • Ajude a produzir mais conteúdo

    00:00 / 00:00

    Cifra Club Pro

    Aproveite o Cifra Club com benefícios exclusivos e sem anúncios
    Cifra Club Pro
    Aproveite o Cifra Club com benefícios exclusivos e sem anúncios
    OK