Cifra Club

Act On Impulse

We Were Promised Jetpacks

Cifra: Principal (violão e guitarra)
Selo Cifra Club: esta cifra foi revisada para atender aos critérios oficiais da nossa Equipe de Qualidade.
tom: Bm
Guitar 1 (00-08 seconds)
E|-------------------------|
B|-------------------------|
G|-------------------------|
D|-------------------------|
A|--0--0--0--0--0--0--0--0-|
E|-------------------------|

Guitar 2 first part
E|----------------------------|
B|----------------------------|
G|----------------------------|
D|--7--9--11-----7--9--11--11-|
A|-------------------------9--|
E|----------------------------|

Guitar 2 second part
E|--------------------------|
B|--------------------------|
G|-----------9---11---------|
D|--7--9--11---11---11------|
A|--------------------------|
E|--------------------------|

Bass
G|-----1-1-2-2-|
D|--2-2--------|
A|-------------|
E|-------------|

silence...
Guitar 1 (palm muted)
E|-------------------|
B|-------------------|
G|-------------------|
D|-------------------|
A|--7-7-7-7--4-4-4-4-|
E|--5-5-5-5--2-2-2-2-|

A lot of the the parts repeat throughout the song
so it shouldn't be too hard to figure out the rest
using what I've tabbed.
Rate and whatnot and listen to this amazing song
thanks
Outros vídeos desta música
    4 exibições
      • ½ Tom
      • Am
      • Bbm
      • Bm
      • Cm
      • C#m
      • Dm
      • Ebm
      • Em
      • Fm
      • F#m
      • Gm
      • G#m
    • Adicionar à lista

    Afinação da cifra

    Afinador online

      0 comentários

      Ver todos os comentários

      Conseguiu tocar?

      0Tocaram0Ainda não

      Grave um vídeo tocando Act On Impulse e nos envie!

      Toque também

      1. Imagem do artista Bombay Bicycle ClubLuna Bombay Bicycle Club
      2. Imagem do artista Frightened RabbitGet Out Frightened Rabbit
      3. Imagem do artista The Twilight SadSometimes I Wished I Could Fall Asleep The Twilight Sad
      4. Imagem do artista Thees UhlmannEs Brennt Thees Uhlmann

      Entre para o Cifra Club PRO

      Tenha acesso a benefícios exclusivos no App e no Site

      • Chega de anúncios

      • Badges exclusivas

      • Mais recursos no app do Afinador

      • Atendimento Prioritário

      • Aumente seu limite de lista

      • Ajude a produzir mais conteúdo

      Cifra Club Pro

      Aproveite o Cifra Club com benefícios exclusivos e sem anúncios
      Cifra Club Pro
      Aproveite o Cifra Club com benefícios exclusivos e sem anúncios
      Ops (: Contenido disponible sólo en portugués.
      OK