Cifra Club

The Honeymoon Is Over

Whipping Boy

Cifra: Principal (violão e guitarra)
Selo Cifra Club: esta cifra foi revisada para atender aos critérios oficiais da nossa Equipe de Qualidade.
tom: Em
[Verse]
                Em    
E|---------------0----|
B|---------------0----|
G|---------------0----|
D|-----0----0----2----|
A|---------------2----|
E|---3---2----0--0----|
                     
The honeymoon is over
       C           G      
And you're still with me
                Em    
E|---------------0----|
B|---------------0----|
G|---------------0----|
D|-----0----0----2----|
A|---------------2----|
E|---3---2----0--0----|
I'm sitting here and I'm tired
        C         G    
I've found my disease

[Chorus]                    
E|------------3-2--------------------3-2----------------3-2-----------------3-2-------|
B|-------------------5-3-3/5-5-5-3-5------5-3-3/5-5-5-3----| 5-3-3/5-5-5-3-5-----5-3---|
G|------------------------------------------------------------------------------------|
D|-----0----0-------------------------------------------------------------------------|
A|----------------------------------------------------------------------------------2-|
E|---3---2----0-----------------------------------------------------------------------|
My back's against a wall now
                              
This time I'll prove you wrong
                                            
And you had to stop, you had to stop and say
                              
It's not right, it's not right
                            
I've been a liar all my life

                Em    
E|---------------0----|
B|---------------0----|
G|---------------0----|
D|-----0----0----2----|
A|---------------2----|
E|---3---2----0--0----|           
Love is something we find in danger
            C               G       
What a feeling when it's not right
                Em    
E|---------------0----|
B|---------------0----|
G|---------------0----|
D|-----0----0----2----|
A|---------------2----|
E|---3---2----0--0----|       
You're a master of disguise now
        C                  G        
You had to learn to tell your lies

                Em    
E|---------------0----|
B|---------------0----|
G|---------------0----|
D|-----0----0----2----|
A|---------------2----|
E|---3---2----0--0----|
I'm steady on my knees
            C          
I'm steady on my knees
            G         
All ready on my knees

[Chorus]
E|------------3-2--------------------3-2----------------3-2-----------------3-2---------------|
B|-------------------5-3-3/5-5-5-3-5------5-3-3/5-5-5-3----| 5-3-3/5-5-5-3-5-----5-3-3/5-5-5-3-|
G|--------------------------------------------------------------------------------------------|
D|-----0----0---------------------------------------------------------------------------------|
A|--------------------------------------------------------------------------------------------|
E|---3---2----0-------------------------------------------------------------------------------|
My back's against a wall now
                              
This time I'll prove you wrong
                                                    
And you had to stop and say, you had to stop and say

                              
It's not right, it's not right
E|---5-3-2-----2/3-3---2-3----5-3-2------|
B|-----------------------------------5-3-|
G|---------------------------------------|
D|---------------------------------------|
A|---------------------------------------|
E|---------------------------------------|
It's not right, it's not right

It's not right, it's not right
                              
It's not right, it's not right
                            
I've been a liar all my life

      Em                         G
A rambling rose with a musky smell walked

E|---5-3-5-3-5-3-5-3-3---3---3---3---3---|
B|---------------------5---5---5---5-----|
G|---------------------------------------| repeat till the end
D|---------------------------------------|
A|---------------------------------------|
E|---------------------------------------|
     D                                       Am              
Into my life and told me things that I cannot tell
     Em                           G             
I'm gonna sow the seeds of doubt in your mind
     D                                
Now I'm gonna change the way you wonder
     Am         
The way you lie

     Em                                     G                
But the beeps are coming baby and it's time to say goodbye
     D                                      Am         
I'll phone you back again, I'll phone you back and lie
     Em                                     G        
So you remember now how to get your story straight
     D                    
I follow in your footsteps
     Am                              
I've been telling the same old lies
     Em                
For the same old sake

     G              
So you remember now
     D                             
What it takes to make a mother cry
     A         
You stupid boy

Em                G   
So you remember now
          D                       
What it takes to make a woman cry
      A       
You silly boy

Em                G   
So you remember now
         D                         
What it takes to make a mother cry
       A      
You stupid boy

Em                G   
So you remember now
           D                      
What it takes to make a woman cry
      A          Em
You silly boy
Outros vídeos desta música
      • ½ Tom
      • Am
      • Bbm
      • Bm
      • Cm
      • C#m
      • Dm
      • Ebm
      • Em
      • Fm
      • F#m
      • Gm
      • G#m
    • Adicionar à lista

    Afinação da cifra

    Afinador online

      0 comentários

      Ver todos os comentários

      Entre para o Cifra Club PRO

      Tenha acesso a benefícios exclusivos no App e no Site

      • Chega de anúncios

      • Badges exclusivas

      • Mais recursos no app do Afinador

      • Atendimento Prioritário

      • Aumente seu limite de lista

      • Ajude a produzir mais conteúdo

      Cifra Club Pro

      Aproveite o Cifra Club com benefícios exclusivos e sem anúncios
      Cifra Club Pro
      Aproveite o Cifra Club com benefícios exclusivos e sem anúncios
      OK