Cifra Club

Baby

Yan Paiva

Cifra: Principal (violão e guitarra)
tom: Bb
[Intro] Bb  Eb  Bb  Eb

[Tab - Intro]

   Bb                    Eb
E|----------------------------------------------|
B|----7----7----7----7------11---11---11---11---|
G|----6----6----6----6------12---12---12---12---|
D|----------------------------------------------|
A|----------------------------------------------|
E|-6----6----6----6------11---11---11---11------|

   Bb                    Eb
E|----------------------------------------------|
B|----7----7----7----7------11---11---11---11---|
G|----6----6----6----6------12---12---12---12---|
D|----------------------------------------------|
A|----------------------------------------------|
E|-6----6----6----6------11---11---11---11------|

Bb                        Eb            Bb
Tudo que eu disser sobre amor, baby não ouça
         Eb
Pode ser só paixão
Bb                      Eb            Bb
Tudo que eu falar sobre dor, baby não creia
          Eb
Não sou parâmetro

Bb                 Eb
Toda poesia que eu clamo
Bb                     Eb
Me obriga a ir mais um pouco além
Bb                    Eb
Sempre que por ela te chamo

   Gm                       F
E|----------------------------------------------|
B|----11----11----11----11----10-----10---10----|
G|----12----12----12----12----10-----10---10----|
D|----------------------------------------------|
A|-10----10----10----10-----8-----8-----8-----8-|
E|----------------------------------------------|

   Eb                    
E|----------------------------------------------|
B|----8----8------------------------------------|
G|----8----8------------------------------------|
D|----------------------------------------------|
A|-6----6----6----------------------------------|
E|----------------------------------------------|

Gm                    F
Vou me desfazendo nos versos
Eb                      Bb         Eb  Bb
Quando vejo já não sou eu quem diz
         Eb
Quem diz

Bb                        Eb  
Toda vez que o choro escorrer
Bb                     Eb
E eu me derramar por você
          Bb   Eb            Bb  Eb
Não me socorra, não me socorra

Bb                      Eb    
Quando eu for sincero demais
Bb                    Eb
Te disser os fatos reais
        Bb    Eb
Baby só corra
        Bb    Eb
Baby só corra

Bb                         F         Eb 
Tome tento quando eu tentar te dar a paz
         Bb        Eb
Que tanto tentas achar

Bb                      F              Eb
Quando eu te prometer o mundo e tudo mais
Bb                      F
Veja que burrice, não dá!
Eb                             Bb
É que eu não tenho o que dizer
       Eb  Bb
Não mais
       Eb
Não mais

Bb                   Eb 
Baby, eu só sou um poeta
                  Gm                  F
Que escraviza palavras pra servirem a mim
Bb                   Eb 
Baby, eu sou outro humano
                 Gm 
Que tem posse da arma
             F
E costuma atirar para o alto
   Eb                  Bb
Cuidado pra não se atingir
      Eb             Bb
Eu te gosto, mas não gosto de mim
      Eb
Eu te gosto

( Bb  Eb )

[Recitado]

Bb                              Eb
   Talvez porque eu me conheça tão bem
          Bb
E temo a ser descoberto
Eb
   Talvez o fardo que eu carrego
      Bb
Seja não ser o meu verso
Eb                              Bb
   Talvez te ame pelo motivo inverso
       Eb
Desconheço
             Bb
Não sei se quero te conhecer
 Eb
Talvez não possa amar o palpável

( Bb  Eb )

Bb                Eb   
Não me romantize amor
Bb                     Eb
Quando eu te chamar de baby
           Bb        Eb
Baby, não morra de amores

Bb                           Eb
Tudo que eu disser sobre o amor
Bb                        Eb
Tudo que eu disser sobre vida
Bb                             Eb
Tudo que eu disser sobre o que eu sou
Bb                     Eb
Tudo que eu te disse agora
           Bb   Eb
Baby, não ouça! É exagero meu
00:00 / 00:00
Outros vídeos desta música
Repetir
Outros vídeos desta música
Composição de Yan Paiva
Colaboração e revisão:
  • Gilson Caio
16 exibições
    • ½ Tom
    • A
    • Bb
    • B
    • C
    • Db
    • D
    • Eb
    • E
    • F
    • F#
    • G
    • Ab
  • Adicionar à lista

    0 comentários

    Ver todos os comentários

    Conseguiu tocar?

    0 Tocaram 0 Ainda não

    Grave um vídeo tocando Baby e nos envie!

    Entre para oCifra Club PRO

    Tenha acesso a benefícios exclusivos no App e no Site

    • Chega de anúncios

    • Prioridade de compra em lançamentos

    • Mais recursos no app do Afinador

    • Atendimento Prioritário

    • Descontos nos produtos Cifra Club

    • Ajude a produzir mais conteúdo

    00:00 / 00:00

    Cifra Club Pro

    Aproveite o Cifra Club com benefícios exclusivos e sem anúncios
    Cifra Club Pro
    Aproveite o Cifra Club com benefícios exclusivos e sem anúncios
    OK