Cifra Club

The Waltz Of The Monsters

Yann Tiersen

Cifra: Principal (violão e guitarra)
Selo Cifra Club: esta cifra foi revisada para atender aos critérios oficiais da nossa Equipe de Qualidade.
tom: Dm
Am Em Dm

E|-0-1-2-3-4-5-4-3-2-0p1p2-5-3-2-0--2-3-5-4-3-1p3-1---5--|
B|-------------------------------------------------5-6---|
G|-------------------------------------------------------|
D|-------------------------------------------------------|
A|-------------------------------------------------------|
E|-------------------------------------------------------|

E|-0-1-2-3-4-5-4-3-2-0p1p2-5-3-7-2-0--2-3-5-4-3-1p3-1-0-0--|
B|-----------------------------------------------------3---|
G|---------------------------------------------------------|
D|---------------------------------------------------------|
A|---------------------------------------------------------|
E|---------------------------------------------------------|

E|--------------------------------------1p3-1-0-1h5--|
B|-0-1-3-1-5-0-----3-5p1-3p0--0-1-3-1-0--------------|
G|------------2-4-5----------------------------------|
D|---------------------------------------------------|
A|---------------------------------------------------|
E|---------------------------------------------------|

E|--------------------------------------------7-8-5--|
B|-0-1-3-1-5-0-----3-5p1-3p0--0-1-3-1-0--5p3-5-------|
G|------------2-4-5----------------------------------|
D|---------------------------------------------------|
A|---------------------------------------------------|
E|---------------------------------------------------|

E|------9---------9---------9---------9---------7---------7---------7---------7------|
B|--8-10-10-8-8-10-10-8-8-10-10-8-8-10-10-8-8-10-10-8-8-10-10-8-8-10-10-8-8-10-10-8--|
G|-9---------9---------9---------9---------9---------9---------9---------9-----------|
D|-----------------------------------------------------------------------------------|
A|-----------------------------------------------------------------------------------|
E|-----------------------------------------------------------------------------------|

E|---5-8-5---5-8-5---5-8-5---5-8-5----------------------------------|
B|--6-----6-6-----6-6-----6-6-----6--10--10---9---9---8---8--7-8-7--|
G|-7-------7-------7-------7-----------9---9---9---9---9---9--------|
D|--------------------------------------10--10--10--10--10--10------|
A|------------------------------------------------------------------|
E|------------------------------------------------------------------|

E|------9---------9---------9---------9---------7---------7---------7---------7------|
B|--8-10-10-8-8-10-10-8-8-10-10-8-8-10-10-8-8-10-10-8-8-10-10-8-8-10-10-8-8-10-10-8--|
G|-9---------9---------9---------9---------9---------9---------9---------9-----------|
D|-----------------------------------------------------------------------------------|
A|-----------------------------------------------------------------------------------|
E|-----------------------------------------------------------------------------------|

E|---5-8-5---5-8-5---5-8-5---5-8-5----------------------------------|
B|--6-----6-6-----6-6-----6-6-----6--10--10---9---9---8---8--7-8-7--|
G|-7-------7-------7-------7-----------9---9---9---9---9---9--------|
D|--------------------------------------10--10--10--10--10--10------|
A|------------------------------------------------------------------|
E|------------------------------------------------------------------|

E|-0-1-2-3-4-5-4-3-2-0p1p2-5-3-2-0--2-3-5-4-3-1p3-1---5--|
B|-------------------------------------------------5-6---|
G|-------------------------------------------------------|
D|-------------------------------------------------------|
A|-------------------------------------------------------|
E|-------------------------------------------------------|

E|-0-1-2-3-4-5-4-3-2-0p1p2-5-3-7-2-0--2-3-5-4-3-1p3-1-0-0--|
B|-----------------------------------------------------3---|
G|---------------------------------------------------------|
D|---------------------------------------------------------|
A|---------------------------------------------------------|
E|---------------------------------------------------------|

E|--------------------------------------1p3-1-0-1h5--|
B|-0-1-3-1-5-0-----3-5p1-3p0--0-1-3-1-0--------------|
G|------------2-4-5----------------------------------|
D|---------------------------------------------------|
A|---------------------------------------------------|
E|---------------------------------------------------|

E|--------------------------------------------7-8-5--|
B|-0-1-3-1-5-0-----3-5p1-3p0--0-1-3-1-0--5p3-5-------|
G|------------2-4-5----------------------------------|
D|---------------------------------------------------|
A|---------------------------------------------------|
E|---------------------------------------------------|

E|-5-3-1-3-1-0-0--3-1-0-1-0-5-3-0-0--3-1-0-0-1-0--0--|
B|---------------3------------------3-----3-----3----|
G|---------------------------------------------------|
D|---------------------------------------------------|
A|---------------------------------------------------|
E|---------------------------------------------------|

E|-0--3-1-0-1-0-5-3-0-1-3-1-0------------------------------------5-------------------------------------|
B|---3------------------------3-5p3-6-5-3-5p3-6-5-3-5p3-6-5-3-5-6-----0p1-0---0p1-0---0p1-0---0p1-0----|
G|-------------------------------------------------------------------2-----2-2-----2-2-----2-2-----2---|
D|------------------------------------------------------------------2-------2-------2-------2----------|
A|-----------------------------------------------------------------------------------------------------|
E|-----------------------------------------------------------------------------------------------------|

E|-0-0--3-1-0-1-0-5-3-0-0--3-1-0-0-1-0--0--|
B|-----3------------------3-----3-----3----|
G|-----------------------------------------|
D|-----------------------------------------|
A|-----------------------------------------|
E|-----------------------------------------|

E|-0--3-1-0-1-0-5-3-0-1-3-1-0------------------------------------5--|
B|---3------------------------3-5p3-6-5-3-5p3-6-5-3-5p3-6-5-3-5-3---|
G|------------------------------------------------------------------|
D|------------------------------------------------------------------|
A|------------------------------------------------------------------|
E|------------------------------------------------------------------|

E|----------------------------------|
B|--1p0-1p0--1p0-1p0--0-1-3-5-8-10--|
G|-2--------2--------2--------------|
D|----------------------------------|
A|----------------------------------|
E|----------------------------------|

E|------------------12------------------15-13-12----------------12----------------15-13-12--|
B|-10p12-13p12-13p12---10p12-13p12-13p12---------8p10-12-8p10-12---8p10-12-8p10-12----------|
G|------------------------------------------------------------------------------------------|
D|------------------------------------------------------------------------------------------|
A|------------------------------------------------------------------------------------------|
E|------------------------------------------------------------------------------------------|

E|--------------10--------------13-10-5-8--7p10p8-7p10p8-7p10p8-7-8--|
B|-6p8-10-6p8-10---6p8-10-6p8-10-------------------------------------|
G|-------------------------------------------------------------------|
D|-------------------------------------------------------------------|
A|-------------------------------------------------------------------|
E|-------------------------------------------------------------------|

E|--------------------------------------------------------------|
B|--0-1p0-1p0-5--0-1p0-1p0-8-5-3------------5------------8-5-3--|
G|-2------------2----------------0-2-4p2-4p2--0-2-4p2-4p2-------|
D|--------------------------------------------------------------|
A|--------------------------------------------------------------|
E|--------------------------------------------------------------|

E|--------------------------------------------------------|
B|--------------------------------------------------------|
G|------------7------------10-7-2-5--7p5-7p5-7p5-7p5-4-5--|
D|-3p5-7p5-7p5--3p5-7p5-7p5-------------------------------|
A|--------------------------------------------------------|
E|--------------------------------------------------------|

E|------------------12------------------15-13-12----------------12----------------15-13-12--|
B|-10p12-13p12-13p12---10p12-13p12-13p12---------8p10-12-8p10-12---8p10-12-8p10-12----------|
G|------------------------------------------------------------------------------------------|
D|------------------------------------------------------------------------------------------|
A|------------------------------------------------------------------------------------------|
E|------------------------------------------------------------------------------------------|

E|--------------10--------------13-10-5-8--7p10p8-7p10p8-7p10p8-7-8--|
B|-6p8-10-6p8-10---6p8-10-6p8-10-------------------------------------|
G|-------------------------------------------------------------------|
D|-------------------------------------------------------------------|
A|-------------------------------------------------------------------|
E|-------------------------------------------------------------------|

E|--------------------------------------------------------------|
B|--0-1p0-1p0-5--0-1p0-1p0-8-5-3------------5------------8-5-3--|
G|-2------------2----------------0-2-4p2-4p2--0-2-4p2-4p2-------|
D|--------------------------------------------------------------|
A|--------------------------------------------------------------|
E|--------------------------------------------------------------|

E|--------------------------------------------------------|
B|--------------------------------------------------------|
G|------------7------------10-7-2-5--7p5-7p5-7p5-7p5-4-5--|
D|-3p5-7p5-7p5--3p5-7p5-7p5-------------------------------|
A|--------------------------------------------------------|
E|--------------------------------------------------------|

E|------------------12------------------15-13-12----------------12----------------15-13-12--|
B|-10p12-13p12-13p12---10p12-13p12-13p12---------8p10-12-8p10-12---8p10-12-8p10-12----------|
G|------------------------------------------------------------------------------------------|
D|------------------------------------------------------------------------------------------|
A|------------------------------------------------------------------------------------------|
E|------------------------------------------------------------------------------------------|

E|--------------10--------------13-10-5-8--7p10p8-7p10p8-7p10p8-7-8--|
B|-6p8-10-6p8-10---6p8-10-6p8-10-------------------------------------|
G|-------------------------------------------------------------------|
D|-------------------------------------------------------------------|
A|-------------------------------------------------------------------|
E|-------------------------------------------------------------------|
00:00 / 00:00
Outros vídeos desta música
Repetir
Outros vídeos desta música
16 exibições
    • ½ Tom
    • Am
    • Bbm
    • Bm
    • Cm
    • C#m
    • Dm
    • Ebm
    • Em
    • Fm
    • F#m
    • Gm
    • G#m
  • Adicionar à lista

Afinação da cifra

Afinador online

    0 comentários

    Ver todos os comentários

    Entre para o Cifra Club PRO

    Tenha acesso a benefícios exclusivos no App e no Site

    • Chega de anúncios

    • Mais recursos no app do Afinador

    • Atendimento Prioritário

    • Aumente seu limite de lista

    • Ajude a produzir mais conteúdo

    00:00 / 00:00

    Cifra Club Pro

    Aproveite o Cifra Club com benefícios exclusivos e sem anúncios
    Cifra Club Pro
    Aproveite o Cifra Club com benefícios exclusivos e sem anúncios
    OK