Cifra Club

Dark Ages

Yngwie Malmsteen

Cifra: Principal (violão e guitarra)
Selo Cifra Club: esta cifra foi revisada para atender aos critérios oficiais da nossa Equipe de Qualidade.
tom: Eb
D#||------------------------|---------------------------|--------------------------|
A#||------------------------|---------------------------|--------------------------|
F#||------------------------|---------------------------|--------------------------|
C#||-------------5--7/-9~---|--------------9h10-9--7~---|--------------7h9-7--5~---|
G#||------------------------|---------------------------|--------------------------|
D#||--0--0----0-------------|--0--0----0-0--------------|--0--0----0-0-------------|

                                                                                  
E|----------------------------|------------------------|---------------------------|
B|----------------------------|------------------------|---------------------------|
G|----------------------------|------------------------|---------------------------|
D|--------------5h7-5--4-5-4~-|-------------5--7/-9~---|--------------9h10-9--7~---|
A|----------------------------|------------------------|---------------------------|
E|--0--0----0-0---------------|--0--0----0-------------|--0--0----0-0--------------|

                                                                               
E|--------------------------|----------------------------|----------------------|
B|--------------------------|----------------------------|----------------------|
G|--------------------------|----------------------------|-------------9--------|
D|--------------7h9-7--5~---|--------------5h7-5--4-5-4~-|-------------9--------|
A|--------------------------|----------------------------|--2--2-------7--------|
E|--0--0----0-0-------------|--0--0----0-0---------------|--0--0----0-----------|

                                                                                           
E|-----------------------|-------------------|-----------------------|----------------------|
B|-----------------------|--4~---------------|-------------4----4----|----------------------|
G|--------------9--------|--4~---------------|-----4-------4----4----|-------------9--------|
D|--------------9--------|--4~---------------|-----4-------4----4----|-------------9--------|
A|--------------7--------|--6~---------------|--6-------6------------|--2--2-------7--------|
E|--0--0--0--0-----------|-------------------|-----------------------|--0--0----0-----------|

                                                                                                
E|-----------------------|-------------------|--------------------------| |-----------------------|
B|-----------------------|--4~---------------|-----4--------------------| |-----------------------|
G|--------------9--------|--4~---------------|-----4--x--x--------------| |*-------------9--------|
D|--------------9--------|--4~---------------|-----4--x--x--------------| |*-------------9--------|
A|--------------7--------|--6~---------------|--6-----x--x--3--2--0-----| |---2--2-------7--------|
E|--0--0--0--0-----------|-------------------|-----------------------3--| |---0--0----0-----------|

                                                                                            
E|-----------------------|-----------7~-------|-----------------------|----------------------|
B|-----------------------|--4--------7~-------|--------------4--------|----------------------|
G|--------------9--------|--4-----------------|-----4--------4--------|-------------4--------|
D|--------------9--------|--4-----------------|-----4--------4--------|-------------2--------|
A|--------------7--------|--6-----------------|--6-----6--6--6--------|--2--2-------2--------|
E|--0--0--0--0-----------|--------------------|-----------------------|--0--0----0-----------|

                                                                                                  
E|-----------------------|-----------------------|-------------------------|-----------------------|
B|-----------------------|--------x--x--7--------|-------------------------|-----------------------|
G|--------------9--------|-----4--x--x--4--------|----5--4-----------------|--2--2--2--2--2--------|
D|--------------9--------|-----4--x--x--4--------|----------7--5--4--------|--2--2--2--2--2--------|
A|--------------7--------|--6-----x--x--6--------|-------------------7--6--|--0--0--0--0--0--------|
E|--0--0--0--0-----------|-----------------------|-------------------------|-----------------------|

                                                                                                   
E|-----------------------|-----------------------|-------------------------|------------------------|
B|-----------------------|-----------------------|-------------------------|------------------------|
G|--4--4--4--4--4--------|--5--5--5--5--5--------|--5--8-----5-------------|------------------------|
D|--4--4--4--4--4--------|--5--5--5--5--5--------|--------7-----4--7-------|-------------5--7/-9~---|
A|--2--2--2--2--2--------|--3--3--3--3--3--------|--------------------6~---|------------------------|
E|-----------------------|-----------------------|-------------------------|--0--0----0-------------|

                                                                                  
E|---------------------------|--------------------------|--------------------------|
B|---------------------------|--------------------------|--------------------------|
G|---------------------------|--------------------------|--------------------------|
D|--------------9h10-9--7~---|--------------7h9-7--5~---|--------------5h7-5--4~---|
A|---------------------------|--------------------------|--------------------------|
E|--0--0----0-0--------------|--0--0----0-0-------------|--0--0----0-0-------------|

                                                                                   
E|------------------------|---------------------------|-----------------------------|
B|------------------------|---------------------------|-----------------------------|
G|------------------------|---------------------------|-----------------------------|
D|-------------5--7/-9~---|--------------9h10-9--7~---|--------------7h9-7h9p7-6~---|
A|------------------------|---------------------------|-----------------------------|
E|--0--0----0-------------|--0--0----0-0--------------|--0--0----0-0----------------|

                                                                                     
E|-----------------------------| |--------------------------|--------------------------|
B|-----------------------------| |--------------------------|--------------------------|
G|----------------------------*| |--------------------------|--------------------------|
D|--------------5h7-5--4h7p4--*| |--------------7h9-7\-5~---|--------------5h7-5--4~---|
A|-----------------------------| |--------------------------|--------------------------|
E|--0--0----0-0----------------| |--0--0----0-0-------------|--0--0----0-0-------------|


Solo:
                                                                                             
E|--8-5-------5-12-8---------8-17-12----------12-20-17----------17-|--20b-----------20r-------|
B|------5---5--------10---10---------13----13----------17----17----|--------------------------|
G|--------5-------------9---------------14----------------17-------|--------------------------|
D|-----------------------------------------------------------------|--------------------------|
A|-----------------------------------------------------------------|--------------------------|
E|-----------------------------------------------------------------|--------------------------|

                                2                                                        
E|--19r-------17-19-17~---17~-|--20b-20-19-17-16-----------------------------------------|
B|----------------------------|------------------18-17-15--------------------------------|
G|----------------------------|---------------------------17-16-14-13--------------------|
D|----------------------------|---------------------------------------15-14-12-----------|
A|----------------------------|------------------------------------------------15-14-12~-|
E|----------------------------|----------------------------------------------------------|

                                                                                 
E|--------------------|--------------------------------|------------------------5-|
B|--10b---------------|-----14t-10----10b-10r---8-10-8-|--7~-----10/-16--16~------|
G|--------------------|---x----------------------------|--------------------------|
D|--------------------|--------------------------------|--------------------------|
A|--------------------|--------------------------------|--------------------------|
E|--------------------|--------------------------------|--------------------------|

                                                                
E|--7-5---------------------|---------------17----------------17-|
B|------7-5\4--12----7------|-----20b----------20-19-17-19-20----|
G|--------------------------|------------------------------------|
D|--------------------------|------------------------------------|
A|--------------------------|------------------------------------|
E|--------------------------|------------------------------------|

                                                                                               
E|--20-19-17----19-17-------17-17----------------17-20-19-17----19-17-------17-17---------------|
B|-----------20-------20-19-------20-19-17-19-20-------------20-------20-19-------20-19-17-16r--|
G|----------------------------------------------------------------------------------------------|
D|----------------------------------------------------------------------------------------------|
A|----------------------------------------------------------------------------------------------|
E|----------------------------------------------------------------------------------------------|

                                                                          
E|--20-17----20-17-14----17-14-10----14-17-14----17-14-11----14-11-8----14-|
B|--------19----------16----------13----------16----------13---------10----|
G|-------------------------------------------------------------------------|
D|-------------------------------------------------------------------------|
A|-------------------------------------------------------------------------|
E|-------------------------------------------------------------------------|

                                                                                     
E|--11----14-11-8----11--------8-11~---8/-17--|--17----------------17-19-20-20b-------|
B|-----13---------10----10-7------------------|-----20-19-17-19-20--------------------|
G|---------------------------8----------------|---------------------------------------|
D|--------------------------------------------|---------------------------------------|
A|--------------------------------------------|---------------------------------------|
E|--------------------------------------------|---------------------------------------|

                                                                                
E|--22b---------------|----------------------|-----------------------------------|
B|--------------------|--------------7/10----|--10r--------10-7-10-7-------------|
G|--------------------|----------------------|-----------------------9-8-9-9-8r--|
D|--------------------|------x---------------|-----------------------------------|
A|--------------------|------x---------------|-----------------------------------|
E|--------------------|------x---------------|-----------------------------------|

tapping part:                                                                              
E|-----------------------------------------------------------------------------|
B|-------10--7-10-7-13-7-10-7-10-12-7-10-7-10-13-7-10-7-10-12-7-10-7-13-7-10-7-|
G|-----------------------------------------------------------------------------|
D|-----------------------------------------------------------------------------|
A|-----------------------------------------------------------------------------|
E|-----------------------------------------------------------------------------|

                                                      
E|-----------------------------------------------------|
B|--16-7-10-7-10-13-7-10-7-10-16-10-7-10-7-17-7-10-21b-|
G|-----------------------------------------------------|
D|-----------------------------------------------------|
A|-----------------------------------------------------|
E|-----------------------------------------------------|

                                                                                         
E|----17--19--20--17--19------17---------------------|------------------------------------|
B|------------------------20------19--20-19-17-16----|------------------------------------|
G|------------------------------------------------17-|--16--------------------------------|
D|---------------------------------------------------|------19--17--16--17--19--19b-------|
A|---------------------------------------------------|------------------------------------|
E|---------------------------------------------------|------------------------------------|

                                                                                                  
E|-----------------------|----------------------|-----------------------------|--------------------|
B|-----------------------|--18b-------18r-------|--17-18-17-19-17~------------|------17------------|
G|--------7r-------------|----------------------|-----------------------------|--------------------|
D|------x----------------|----------------------|-----------------------------|--------------------|
A|----x------------------|----------------------|-----------------------------|--------------------|
E|--x--------------------|----------------------|-----------------------------|--------------------|

                                                                                                    
E|------------------|--------------------------|--------------------------|--------------------------|
B|------------------|--------------------------|--------------------------|--------------------------|
G|------------------|--------------------------|--------------------------|--------------------------|
D|------------------|--------------5h7-5--4~---|--------------5h7-5--4~---|--------------5h7-5--4~---|
A|------------------|--------------------------|--------------------------|--------------------------|
E|------------------|--0--0----0-0-------------|--0--0----0-0-------------|--0--0----0-0-------------|

                                                                                                      
E|--------------------------|--------------------------|-----------------------|-----------------------|
B|--------------------------|--------------------------|-----------------------|-----------------------|
G|--------------------------|--------------------------|--------------4~-------|--------------4~-------|
D|--------------5h7-5--4~---|--------------5h7-5--4~---|-----------------------|-----------------------|
A|--------------------------|--------------------------|--2--2----2-2----------|--2--2----2-2----------|
E|--0--0----0-0-------------|--0--0----0-0-------------|-----------------------|-----------------------|

                                                                                                   
E|-----------------------|--------------------------|-----------------------|-----------------------|
B|-----------------------|--------------------------|-----------------------|-----------------------|
G|--------------4~-------|-----5\-4-----------------|--------------4~-------|--------------4~-------|
D|-----------------------|-----------2--1--5\-4-----|-----------------------|-----------------------|
A|--2--2----2-2----------|--2--------------------3--|--2--2----2-2----------|--2--2----2-2----------|
E|-----------------------|--------------------------|-----------------------|-----------------------|

                                                   
E|-----------------------|--------------------------|
B|-----------------------|--------------------------|
G|--------------4~-------|-----5\-4-----------------|
D|-----------------------|-----------2--1--5\-4-----|
A|--2--2----2-2----------|--2--------------------3--|
E|-----------------------|--------------------------|


                                                     
E|---19-20-17-20-15-20----20----20-19-20-17-20-15-20-|
B|---------------------19----17----------------------|
G|*--------------------------------------------------|
D|*--------------------------------------------------|
A|---------------------------------------------------|
E|---------------------------------------------------|

                                                                                                 
E|-----20----20----19-17-19-15-19-14-19----17----17-|-----17-14-------14-11-------11-8------8-5---|
B|--19----17----16----------------------16----16----|--16-------16\13-------13\10------10\7-----7-|
G|--------------------------------------------------|---------------------------------------------|
D|--------------------------------------------------|---------------------------------------------|
A|--------------------------------------------------|---------------------------------------------|
E|--------------------------------------------------|---------------------------------------------|

       trill                 
E|------------------------| |
B|--8----7-8-7~-----------| |
G|-----------------------*| |
D|-----------------------*| |
A|------------------------| |
E|------------------------| |
00:00 / 00:00
Outros vídeos desta música
Repetir
Outros vídeos desta música
15 exibições
    • ½ Tom
    • A
    • Bb
    • B
    • C
    • Db
    • D
    • Eb
    • E
    • F
    • F#
    • G
    • Ab
  • Adicionar à lista

Afinação da cifra

Afinador online

    0 comentários

    Ver todos os comentários

    Entre para o Cifra Club PRO

    Tenha acesso a benefícios exclusivos no App e no Site

    • Chega de anúncios

    • Mais recursos no app do Afinador

    • Atendimento Prioritário

    • Aumente seu limite de lista

    • Ajude a produzir mais conteúdo

    00:00 / 00:00

    Cifra Club Pro

    Aproveite o Cifra Club com benefícios exclusivos e sem anúncios
    Cifra Club Pro
    Aproveite o Cifra Club com benefícios exclusivos e sem anúncios
    OK