Cifra Club

Ykwim

Yot Club

Cifra: Principal (violão e guitarra)
Selo Cifra Club: esta cifra foi revisada para atender aos critérios oficiais da nossa Equipe de Qualidade.
tom: B
E|--6----------------6------------------|
B|----9------7-9-------9---------7------|
G|------8--------8-------8--------------|
D|------------------------------------0-|
A|----------------------------------6---|
E|--------------------------------------|

E|--6---0--------0----6---0----------------|
B|----9------7-9--------9------7-----------|
G|---------------------------------0----8--|
D|-----------------------------------------|
A|-------------------------------9---------|
E|-----------------------------------------|

You can play this throughout the whole song
Hope it helps lol

Lyrics
Hey
It's not like you've ever tried to stay
Sometimes it seems like I'm in your way
Well, that's how it seems
Hey
You know what I mean?

It seems like I care too much
When I'm all alone, oh no
I feel like I care too much
When no one's at home for me
Feel like I'm fallin' out
Well, that's how it seems
I think that I'm fallin' out
You know what I mean?

It seems like I care too much
When I'm all alone, oh no
She said that I care too much
When no one's at home for me, ah
Outros vídeos desta música
7.342 exibições
    • ½ Tom
    • A
    • Bb
    • B
    • C
    • Db
    • D
    • Eb
    • E
    • F
    • F#
    • G
    • Ab
  • Adicionar à lista

Afinação da cifra

Afinador online

    0 comentários

    Ver todos os comentários

    Entre para o Cifra Club PRO

    Tenha acesso a benefícios exclusivos no App e no Site

    • Chega de anúncios

    • Mais recursos no app do Afinador

    • Atendimento Prioritário

    • Aumente seu limite de lista

    • Ajude a produzir mais conteúdo

    Cifra Club Pro

    Aproveite o Cifra Club com benefícios exclusivos e sem anúncios
    Cifra Club Pro
    Aproveite o Cifra Club com benefícios exclusivos e sem anúncios
    OK