Cifra Club

Abertura do Seriado (Smile Bomb)

Yu Yu Hakusho

Cifra: Principal (violão e guitarra)
Selo Cifra Club: esta cifra foi revisada para atender aos critérios oficiais da nossa Equipe de Qualidade.
tom: Ab
Intro:
E|-----------------------------------| 
B|-----------------------------------|
G|---88--6-------88--------8~~-------|  
D|---88--6-6--8--88--(x7)--8~~-------|
A|---66--4-6--8--66--------6~~-------|
E|---------4--6----------------------|

Verso
E|------------------------------------------------------------| 
B|------------------------------------------------------------|
G|---8-8-8--6-----8-8-8--6-----8-8-8--10-12-------------------|     (2x)
D|------------6-8----------6-8-------------10-----------------|
A|------------------------------------------------------------|
E|------------------------------------------------------------|

E|---------------------------------------------------------------------------| 
B|-----------9--11~~--11-9-8-6-8---------------------------------------------|
G|---8-10-12--------------------------10-8~~---------------------------------|
D|-------------------------------8--8----------------------------------------|
A|---------------------------------------------------------------------------|
E|---------------------------------------------------------------------------|

Ponte
E|---------------------------------------------------------------------------| 
B|---------------------------------------------------------------------------|
G|--8-8-7-5-7-8---8-10-12---12b(x5)-11-10------------------------------------|
D|---------------------------------------------------------------------------|
A|---------------------------------------------------------------------------|
E|---------------------------------------------------------------------------|

Verso 2
E|---------------------------------------------------------------------------| 
B|---------------------8---11-9-8-----8-------8------------------------------|
G|--8-10h12-12----8h10--10---------10------10--------------------------------|
D|--------------------------------------8-------10---------------------------|
A|---------------------------------------------------------------------------|
E|---------------------------------------------------------------------------|

E|---------------------------------------------------------------------------| 
B|---------------------------------------------------------------------------|
G|--12-12--8----8-8~~---12-12--8----8---------7-8-7---8-10-8--10/12~~--------|
D|-----------10------------------10---10~~-----------------------------------|
A|---------------------------------------------------------------------------|
E|---------------------------------------------------------------------------|

E|---------------------------------------------------------------------------| 
B|---------------------8---11-9-8-----8-------8------------------------------|
G|--8-10h12-12----8h10--10---------10------10--------------------------------|
D|--------------------------------------8-------10---------------------------|
A|---------------------------------------------------------------------------|
E|---------------------------------------------------------------------------|

E|---------------------------------------------------------------------------| 
B|---------------------------------------------------------------------------|
G|--12-12--8----8-8~~---12-12--8----8---------7-8-7---8-10-8--10/15~~--------|
D|-----------10------------------10---10~~-----------------------------------|
A|---------------------------------------------------------------------------|
E|---------------------------------------------------------------------------|

Final/Outro
E|---------------------------------------------------------------------------| 
B|---------------------------------------------------------------------------|
G|----------------10-12-13~~--12---------------------------------------------|
D|-------10-12-13------------------------------------------------------------|
A|---13----------------------------------------------------------------------|
E|---------------------------------------------------------------------------|
Outros vídeos desta música
6.430 exibições
    • ½ Tom
    • A
    • Bb
    • B
    • C
    • Db
    • D
    • Eb
    • E
    • F
    • F#
    • G
    • Ab
  • Adicionar à lista

Afinação da cifra

Afinador online

    0 comentários

    Ver todos os comentários

    Entre para o Cifra Club PRO

    Tenha acesso a benefícios exclusivos no App e no Site

    • Chega de anúncios

    • Mais recursos no app do Afinador

    • Atendimento Prioritário

    • Aumente seu limite de lista

    • Ajude a produzir mais conteúdo

    Cifra Club Pro

    Aproveite o Cifra Club com benefícios exclusivos e sem anúncios
    Cifra Club Pro
    Aproveite o Cifra Club com benefícios exclusivos e sem anúncios
    OK