Cifra Club

Sucuri

Zé Carreiro e Carreirinho

Cifra: Principal (violão e guitarra)
Selo Cifra Club: esta cifra foi revisada para atender aos critérios oficiais da nossa Equipe de Qualidade.
tom: A
[Intro]

Parte 1 de 2
E|--12-10-12-7-7-5-4-4--4-14-14-12-12-10--9--|
B|--14-12-14-9-9-7-5-5--5-15-15-14-14-12-10--|
G|-------------------------------------------|
E|-------------------------------------------|
B|-------------------------------------------|

Parte 2 de 2
E|--12-10-12-7-7-5-4--4-2-2----------5-5-5------|
B|--14-12-14-9-9-7-5--5-3-3-5-5-3-3--5-5-5------|
G|--------------------------5-5-3-3--5-5-5------|
E|-----------------------------------5-5-5------|
B|-----------------------------------5-5-5------|

 A                E7                 A 
Me conto um pescador que no rio Itararé
                   E7                  A
Na barranca desse rio mora uma cobra crué
                   E7
Essa cobra quando pia tem que vê como é que é
                                        A
Deixa o povo do lugar tudo de cabelo em pé

Parte 2 de 2
E|--12-10-12-7-7-5-4--4-2-2----------5-5-5------|
B|--14-12-14-9-9-7-5--5-3-3-5-5-3-3--5-5-5------|
G|--------------------------5-5-3-3--5-5-5------|
E|-----------------------------------5-5-5------|
B|-----------------------------------5-5-5------|

 A              E7                  A 
Um dia eu fui pescar e levei o Zé mané
                  E7                      A
Fomos nesse tal lugar onde o rio não dava pé
                     E7
E topemos com essa cobra nós fizemos um aranzé
                                          A
A cobra quando viu nós de brava ficava em pé

Parte 2 de 2
E|--12-10-12-7-7-5-4--4-2-2----------5-5-5------|
B|--14-12-14-9-9-7-5--5-3-3-5-5-3-3--5-5-5------|
G|--------------------------5-5-3-3--5-5-5------|
E|-----------------------------------5-5-5------|
B|-----------------------------------5-5-5------|

 A                E7                     A 
Nós subimos rio acima remando contra a maré
                   E7                    A
Essa cobra vinha atrás que dava arrepio até
                         E7
Eu chamei por todos os santos por São Bento e São José
                                           A
E disse pro companheiro vá rezando e tenha fé

Parte 2 de 2
E|--12-10-12-7-7-5-4--4-2-2----------5-5-5------|
B|--14-12-14-9-9-7-5--5-3-3-5-5-3-3--5-5-5------|
G|--------------------------5-5-3-3--5-5-5------|
E|-----------------------------------5-5-5------|
B|-----------------------------------5-5-5------|

 A                   E7                     A 
Onde o rio fez uma curva eu gritei pro Zé mané
                E7                 A
Abandonemo a canoa e amoitemo no sapé
                 E7
A cobra passou direito parecia um Lucifé
                                             A
Nunca mais nós dois vortemo pra pesca no Itararé
00:00 / 00:00
Outros vídeos desta música
Repetir
Outros vídeos desta música
1.606 exibições
    • ½ Tom
    • A
    • Bb
    • B
    • C
    • Db
    • D
    • Eb
    • E
    • F
    • F#
    • G
    • Ab
  • Adicionar à lista

Afinação da cifra

Afinador online

    0 comentários

    Ver todos os comentários

    Entre para o Cifra Club PRO

    Tenha acesso a benefícios exclusivos no App e no Site

    • Chega de anúncios

    • Mais recursos no app do Afinador

    • Atendimento Prioritário

    • Aumente seu limite de lista

    • Ajude a produzir mais conteúdo

    00:00 / 00:00

    Cifra Club Pro

    Aproveite o Cifra Club com benefícios exclusivos e sem anúncios
    Cifra Club Pro
    Aproveite o Cifra Club com benefícios exclusivos e sem anúncios
    OK