Cifra Club

Via Lactea

Zoé

Cifra: Versão 3 (violão e guitarra)
Selo Cifra Club: esta cifra foi revisada para atender aos critérios oficiais da nossa Equipe de Qualidade.
tom: Em
Intro

E|-----------------------------------------------------| |
B|-----------------------------------------------------| |
G|----------------------------------------------------.| |
D|-------------------------------7-7-5-7--------------.| |
A|--7-7-9-9-10-10-9-9----------------------------------| |
E|--------------------8-8-7-8-------------8-8-7-8------| |



Verso:

Em         C         Am   C
Llevo tu voz en mi voz
Em         C         Am   C
Grabada con aerosol
Em             C                        Am   C
Beso fantasma pegado en mi labio inferior
Em            C      Am   C
Y el mapa de tu desnudez

 PreCoro

           C           D
Llevo el prisma de tus ojos
      Bm             Em
En mi casco de astronauta
          Am        C           G
Y la tímida aurora de tus células

Coro

   C                 G
Y todas las noches bajo la vía láctea
   C                G
Parecen eternas sí tú no estás
 C                   G
Todas las noches desde mi ventana
   C        D           Em
Conjuro tu nombre inmortal


INTRO RIFF 1

E|------------------|-----------|-------| |
B|------------------|-----------|-------| |
G|-9-7-9------------| .---------.|-------||
D|-------9-10-9-5-7-| .-7-9-7-9-.|-10-9--||
A|------------------|-----------|-------| |
E|------------------|-----------|-------| |



Em           C       Am   C
Y a veces llora mi piel
Em          C        Am   C
Cuando se baña de anhelo
Em           C       Am   C
Se infla mi mente con tantos recuerdos
Em             C     Am   C
Que ya no me puedo dormir

        C              D
Y la alfombra de tus sueños
      Bm        Em
En el rayo vagabundo
   Am                G
Desmaya y parece que no se apaga


CORO


INTRO


PDC ORO


G  O
                        3 veces

E|----------------------------------|----------------------| |
B|-12-12-12-13-12--11-12-12-12-12---|----------------------| |
G|---------------------------------.|-11-11-12-12-12-12-12-| |
D|---------------------------------.|----------------------| |
A|----------------------------------|----------------------| |
E|----------------------------------|----------------------| |

C
Vía Láctea...
G
Vía Láctea...
C
Vía Láctea...
D            G
Si tú no estás

Dos veces

C                 D              Em
Y se que te vuelvo a encontrar



Sin dedicatoria
trascripcion por: Carlos Cujia
Colaboracion: Jonathan Mancera
              Felix Farfan
Outros vídeos desta música
    59 exibições
      • ½ Tom
      • Am
      • Bbm
      • Bm
      • Cm
      • C#m
      • Dm
      • Ebm
      • Em
      • Fm
      • F#m
      • Gm
      • G#m
    • Adicionar à lista

    Afinação da cifra

    Afinador online

      0 comentários

      Ver todos os comentários

      Conseguiu tocar?

      0Tocaram0Ainda não

      Grave um vídeo tocando Via Lactea e nos envie!

      Toque também

      1. Imagem do artista León LarreguiBrillas León Larregui
      2. Imagem do artista Austin TvLes Choses Sont Bizarres Austin Tv
      3. Imagem do artista LiquitsChicharos Magicos Liquits
      4. Imagem do artista VaqueroEres un encanto Vaquero

      Entre para o Cifra Club PRO

      Tenha acesso a benefícios exclusivos no App e no Site

      • Chega de anúncios

      • Badges exclusivas

      • Mais recursos no app do Afinador

      • Atendimento Prioritário

      • Aumente seu limite de lista

      • Ajude a produzir mais conteúdo

      Cifra Club Pro

      Aproveite o Cifra Club com benefícios exclusivos e sem anúncios
      Cifra Club Pro
      Aproveite o Cifra Club com benefícios exclusivos e sem anúncios
      OK