Meu Disfarce

Bruno e Marrone

 Bruno e Marrone
Tom: G#
		
Intro:  Fm                          C7                     D#7 
 e|----- ------------------------------------------------------------|
 b|------9----9---9-----9-------8----8----8----8-------8---8---8---8-|
 g|------------------------------------------------------------------|
 d|---10--10---10---10-------10---10---10---10------8---8---8---8----|
 a|-8---------------------7----------------------6-------------------|
 E|------------------------------------------------------------------|
     Bb7                  C#7              D#7


 e|------------------------------------------------------------|
 b|-9-8----------------------6----6----6---6---6/8--11---------|
 g|----10--8-8/10--8--7~------------------------------8~-------|
 d|------------------------6---6----6----6---------------------|
 a|----------------------4-------------------------------------|
 E|------------------------------------------------------------|


   Fm                      C7
Você vê esse meu jeito de pessoa liberada
        F7                        Bbm               Bbm7
Mas não sabe que por dentro não é isso,eu não sou nada
       C       C7             Fm        
Tenho ares de serpente mas em casos de amor
      G7                         C7 
Sou pequeno sou carente sou tão frágil sonhador
Fm*                      C7                      *bater nas cordas de baixo pra cima* 
Eu me pinto e me disfarço companheiro do perigo
        F7                    Bbm             Bbm7    
Eu me solto em sua festa mas sozinho eu não consigo
        C            C7        Fm               
Digo coisas que não faço, faço coisas que eu não digo
        G7                   C7              F7
Quero ser o seu amado, não somente seu amigo
     Bbm          D#7                       G#7M
Cada vez que eu sinto um beijo seu na minha face
     Fm                    Bbm       C7                       Fm      F7
Eu luto pra manter o meu disfarce e não deixar tão claro que te quero
      Bbm     D#7                     G#7M     Fm                         Bbm
Cada vez se torna mais difícil o meu teatro, não dá mais pra fugir do seu contato
  C7                      Fm C7 D#7 Bb7 C#7 D#7
Estou apaixonado por você...
Fm*                        C7
Eu me pinto e me disfarço companheiro do perigo
        F7                    Bbm            Bbm7
Eu me solto em sua festa mas sozinho eu não consigo
        C           C7         Fm               
Digo coisas que não faço, faço coisas que eu não digo
        G7                   C7              F7
Quero ser o seu amado, não somente seu amigo
     Bbm          D#7                       G#7M
Cada vez que eu sinto um beijo seu na minha face
     Fm                    Bbm       C7                       Fm      F7
Eu luto pra manter o meu disfarce e não deixar tão claro que te quero
      Bbm     D#7                      G#7M     Fm                         Bbm
Cada vez se torna mais difícil o meu teatro, não dá mais pra fugir do seu contato
  C7                      Fm C7 C# C C7 Fm*
Estou apaixonado por você...
141.908 exibições

Comentários 1

  • tequilla tequilla: Postado em 07/04/2011 16:40

    PESSOA ESSA MUSICA E LINDA!! OPW VM FAZER UMA VIDEO AULA DELA PLIS!!!! OBRIGADO VCS SÃO FODAAAAAAAAAAAAAAAAAAAAAAAA

Composição: Chico Roque/Carlos Colla
Esse não é o compositor? Avise-nos.
Contribuição: junin Correções: Cruz e mais 2 »
Exibir acordes »
publicidade
fechar