Só de Você

Bruno e Marrone

 Bruno e Marrone
Tom: C
		
Intro: (C , G , Am , F)


E|-----------------------------------------------------|
B|--8-6--5----6-5----------------5-5/6-5----------5----|
G|---------7------4-4/5--5-5-5-7---------7-7--5-7------|
D|-----------------------------------------------------|
A|-----------------------------------------------------|
E|-----------------------------------------------------|



E|-----------------------------------------------------|
B|--8-6--5----6-5----------------5---6-5---------------|
G|---------7------4-4/5--5-5-5-7---------7-5-5/7-5-----|
D|---------------------------------7-------------------|
A|-----------------------------------------------------|
E|-----------------------------------------------------|



C                 G
Outra noite nós dois
              Am
E o desejo no ar
                 F                 C
Cada beijo que rola faz o mundo parar
                   G
E eu só penso em você
                  Am
Com a força do coração
                   F             G       C     G
Cada segundo que passa aumenta minha paixão 
C                G      Am                 F
Você me faz sonhar e acordar flutuando no céu
C        G
E eu só sei te amar
         Am                G
O nosso amor é uma lua de mel
C                  G
E pode o céu desabar
                  Am
E a terra todo tremer
                     F           G         C
Que eu já mais vou deixar de te amar te querer
                    G
Enquanto a lua brilhar
               Am
E o sol aparecer
                   F           G       C
Juro que o meu coração vai ser só de você

Comentários 2

  • gusst gusst: Postado em 24/01/2013 20:16

    muito linda essa musica consegui tocar

  • danilokapla danilokapla: Postado em 14/07/2011 22:07

    oxe kd a video aula manows

Composição: Rivanil / Everton Mattos / Jairo Góes
Esse não é o compositor? Avise-nos.
Contribuição: Vinicius
Exibir acordes »
publicidade
fechar