Vê Se Toma Juizo

Bruno e Marrone

 Bruno e Marrone
Tom: G
		

                 Em        D             Bm      C
E|------------5--7---------5-----------------------------
B|---5--7--8----------8-5--7----7--8--10-10--8/7/8-------
G|-------------------------7----7--9--11-11--9/8/9-------
D|-------------------------------------------------------
A|-------------------------------------------------------
E|-------------------------------------------------------


                 Em         D            Bm      C
E|------------5--7---------5-----------------------------
B|---5--7--8----------8-5--7----7--8--10-10--12-8--------
G|-------------------------7----7--9--11-11--12-9--------
D|-------------------------------------------------------
A|-------------------------------------------------------
E|-------------------------------------------------------


G
Não vou mais acreditar
           Bm7
no que me fala
     Dm7           G7
Por favor não me procure
              C9
nem me ligue mais

       Cm
Eu já estava me curando
    G               Em
Mas você de vez em quando
      Am
Me provoca só pra
            D7
me tirar a paz

      G                      Bm7
E eu que pensei que já te conhecia
     Dm7      G7        C9
Todo dia você faz uma loucura
    Cm
Você usa o meu medo,
     G             Em
meu amor, o seu segredo
      Am7        D7          G
Basta só me ver feliz e me procura

(refrão)
D7
         G
Ve se esquece
Desaparece
          Am
Da minha vida
            D7         Am
Não faz com ele assim
          D7         Am
O que já fez pra mim
  D7      G
Ninguem merece
D7         G
Não jogue fora
Quem te adora
       Am
Toma juizo
     C                  D
Seu amor só de vez em quando eu não...

               ...preciso

                 Em         D             Bm     C
E|------------5--7---------5-----------------------------
B|---5--7--8----------8-5--7----7--8--10-10--8/7/8-------
G|-------------------------7----7--9--11-11--9/8/9-------
D|-------------------------------------------------------
A|-------------------------------------------------------
E|-------------------------------------------------------


                 Em         D             Bm     C
E|------------5--7---------5-----------------------------
B|---5--7--8----------8-5--7---7-7--8--10-10--12-8-------
G|-------------------------7---7-7--9--11-11--12-9-------
D|-------------------------------------------------------
A|-------------------------------------------------------
E|-------------------------------------------------------


      G                      Bm7
E eu que pensei que já te conhecia
     Dm7      G7        C9
Todo dia você faz uma loucura
    Cm
Você usa o meu medo,
     G             Em
meu amor, o seu segredo
      Am7        D7          G
Basta só me ver feliz e me procura

(refrão)
D7
         G
Ve se esquece
Desaparece
          Am
Da minha vida
            D7         Am
Não faz com ele assim
          D7         Am
O que já fez pra mim
  D7      G
Ninguem merece

D7         G
Não jogue fora
Quem te adora
       Am
Toma juizo
     C                  D
Seu amor só de vez em quando eu não...

               ...preciso

                 Em         D             Bm     C
E|------------5--7---------5-----------------------------
B|---5--7--8----------8-5--7----7--8--10-10--12-8--------
G|-------------------------7----7--9--11-11--12-9--------
D|-------------------------------------------------------
A|-------------------------------------------------------
E|-------------------------------------------------------
63.836 exibições

Comentários 0

Composição: Bruno e Marrone
Esse não é o compositor? Avise-nos.
Contribuição: Tavares Correções: JefersonLuiz »
Exibir acordes »
publicidade
fechar