Charlie Brown Jr.

I Feel So Good Today

114.700 exibições
Tom: C#
Solo:

E|-----------------------------------------------------------------|
B|-----------------------------------------------------------------|
G|--------8---6-5---5-5-5-6-5--------------------------------------|
D|------6---------------------8-6----8/10--8-6---6-6-6-8-6---------|
A|--8-8-----------------------------------------------------9-8----|
E|-----------------------------------------------------------------|


Base:

E|------------------------------|
B|------------------------------|
G|-------10----6----------------|  (7x cada acorde)
D|-------10----6-----8-----4----|
A|-------8-----4-----8-----4----|
E|-------------------6-----2----|


Riff:

E|------------------------------|
B|------------------------------|
G|-------10----6----------------|
D|-------10----6-----8-----4----|
A|-------8-----4-----8-----4----|
E|-------------------6-----2----|


(Base 2x) (solo 2x)

(Base)
I feel so good today... (2x)

Que bom olhar pro lado e encontrar você,
Depois de tantas chances perdidas,
Quero esperar pelo amanhecer,
Quero ver o sol refletindo em você.

C#5        G#5          F5 Bb5 G#5
Basta eu olhar pra você
C#5             G#5     F5 Bb5 G#5
Fica tudo em evidência!

(Base 2x) (solo 2x)

(Base)
I feel so good today... (2x)

Corpos livres, mentes perdidas,
Gente que ainda sonha com uma nova vida,
Tudo é simples calmo visto de cima,
O mundo é grande mas é só uma ilha.

C#5              G#5          F5 Bb5 G#5
Mas o que me interessa é você
C#5              G#5     F5 Bb5 G#5
Temos a nossa frequência!

(Solo 2x)

C#5              G#5          F5 Bb5 G#5
Mas o que me interessa é você
C#5              G#5     F5 Bb5 G#5
Temos a nossa frequência!

(Riff)
(Solo 2x durante a estrofe)
That's why I love you so much oh girl I,
I can't live without your love,
Don't you never go, yeah

(Base)
Tente entender... Tente me fazer entender,
Quero num dia mais lindo, estar ao seu lado.
    Composição: ChorãoColaboração e revisão:
    • pedrogoulart
    • math.nascimento
    • kamikazi
    • Edu Music M.Skt
    • +9

    Comentários 5

    • fadelkadar77 fadelkadar77: Postado em 31/01/2014 23:09

      Cifra V2 é a correta !

    • gabriel gabriel: Postado em 20/09/2013 18:44

      Intao arrumem a cifra ae na moral

    • Edu Music M.Skt Edu Music M.Skt: Postado em 17/11/2011 10:59

      Já tinha concertado a cifra, foram e desarrumaram denovo! Afff

      • artixshao artixshao: Postado em 05/08/2013 20:14

        arruma aew mano , plis!

      • artixshao artixshao: Postado em 05/08/2013 20:20

        arruma d novo aew man, plis

    conseguiu tocar?

    • roney
    • kleverton.oliveira.1
    • Lucas
    • Carlos
    • Leonardo
    • Henrique
    • pedrogoulart
    • •••

    covers

    Grave um vídeo tocando I Feel So Good Today e mande pra gente!

    Ex.: http://www.youtube.com/watch?v=0IvSvIwGdwk
    ver covers de outras músicas »
    0:00 / 0:00

    Capítulos

      2 versões de Guitar Proformatodownloadscontribuição
      play/pausefechar subir/descer velocidade
      6ª corda E5ª corda A4ª corda D3ª corda G2ª corda B1ª corda E
        acordes
        publicidad
        fechar
        ok