Cifra Club

I Feel So Good Today / Uma Criança Com Seu Olhar

Charlie Brown Jr.

Cifra: Principal
exibições 129.513
Tom: C#
Solo:
E|-----------------------------------------------------------------|
B|-----------------------------------------------------------------|
G|--------8---6-5---5-5-5-6-5--------------------------------------|
D|------6---------------------8-6----8/10--8-6---6-6-6-8-6---------|
A|--8-8-----------------------------------------------------9-8----|
E|-----------------------------------------------------------------|

Base do Solo:
E|------------------------------|
B|------4-----------------------|
G|------5-----5-----5-----------|  (1x cada acorde)
D|------3-----6-----3-----6-----|
A|------------4-----1-----4-----|
E|------------------------2-----|


Base:
E|------------------------------|
B|------------------------------|
G|-----10-----6-----------------|  (7x cada acorde)
D|-----10-----6------8-----6----|
A|------8-----4------8-----4----|
E|-------------------6-----2----|


(Base do Solo 2x)
(Base do Solo+Solo 2x) -----> caso não tenha um 2º violão acompanhando, tocar apenas o solo

(Base)
I feel so good today... (2x)

Que bom olhar pro lado e encontrar você
Depois de tantas chances perdidas
Quero esperar pelo amanhecer
Quero ver o sol refletindo em você

C#5        G#5          F5 Bb5 G#5
Basta eu olhar pra você
C#5             G#5     F5 Bb5 G#5
Fica tudo em evidência

(Base do Solo 2x)
(Solo+Base do Solo 2x)

(Base)
I feel so good today... (2x)

Corpos livres, mentes perdidas
Gente que ainda sonha com uma nova vida
Tudo é simples calmo visto de cima
O mundo é grande, mas é só uma ilha

C#5              G#5          F5 Bb5 G#5
Mas o que me interessa é você
C#5              G#5     F5 Bb5 G#5
Temos a nossa frequência

(Base do Solo+Solo 2x) -----> caso não tenha um 2º violão acompanhando, tocar apenas o solo

C#5              G#5          F5 Bb5 G#5
Mas o que me interessa é você
C#5              G#5     F5 Bb5 G#5
Temos a nossa frequência

(Base do Solo)

(Base do Solo+Solo 2x) -----> caso não tenha um 2º violão acompanhando, tocar apenas o solo
That's why I love you so much oh girl I,
I can't live without your love,
Don't you never go, yeah

(Base)
Tente entender... Tente me fazer entender,
Quero num dia mais lindo, estar ao seu lado.

0 comentários

    mostrar mais comentários

    Conseguiu tocar?

    14tocaram0ainda não

    Grave um vídeo tocando I Feel So Good Today / Uma Criança Com Seu Olhar e mande pra gente!

    00:00 / 00:00
    outros vídeos desta música
    repetirqualidadeautomática
    Outro vídeos desta música
      00:00 / 00:00
      automática
      OK