Notificações Amigos pendentes

      Charlie Brown Jr.

      I Feel So Good Today

      122.065 exibições
      Tom: C#
      Solo:
      
      E|-----------------------------------------------------------------|
      B|-----------------------------------------------------------------|
      G|--------8---6-5---5-5-5-6-5--------------------------------------|
      D|------6---------------------8-6----8/10--8-6---6-6-6-8-6---------|
      A|--8-8-----------------------------------------------------9-8----|
      E|-----------------------------------------------------------------|
      
      
      Base:
      
      E|------------------------------|
      B|------4-----------------------|
      G|------5-----5------5----------|  (7x cada acorde)
      D|------3-----6------3-----6----|
      A|------------4------1-----4----|
      E|-------------------------2----|
      
      
      Base do Solo:
      
      E|------------------------------|
      B|------4-----------------------|
      G|------5------5----------------|  (1x cada acorde)
      D|------3------6-----7-----3----|
      A|-------------4-----8-----4----|
      E|-------------------6-----2----|
      
      
      (Base do Solo 2x) (Solo 2x)
      
      (Base)
      I feel so good today... (2x)
      
      Que bom olhar pro lado e encontrar você,
      Depois de tantas chances perdidas,
      Quero esperar pelo amanhecer,
      Quero ver o sol refletindo em você.
      
      C#5        G#5          F5 Bb5 G#5
      Basta eu olhar pra você
      C#5             G#5     F5 Bb5 G#5
      Fica tudo em evidência!
      
      (Base do Solo 2x) (Solo 2x)
      
      (Base)
      I feel so good today... (2x)
      
      Corpos livres, mentes perdidas,
      Gente que ainda sonha com uma nova vida,
      Tudo é simples calmo visto de cima,
      O mundo é grande mas é só uma ilha.
      
      C#5              G#5          F5 Bb5 G#5
      Mas o que me interessa é você
      C#5              G#5     F5 Bb5 G#5
      Temos a nossa frequência!
      
      (Solo 2x)
      
      C#5              G#5          F5 Bb5 G#5
      Mas o que me interessa é você
      C#5              G#5     F5 Bb5 G#5
      Temos a nossa frequência!
      
      (Base do Solo)
      (Solo 2x durante a estrofe)
      That's why I love you so much oh girl I,
      I can't live without your love,
      Don't you never go, yeah
      
      (Base)
      Tente entender... Tente me fazer entender,
      Quero num dia mais lindo, estar ao seu lado.
        Composição: ChorãoColaboração e revisão:
        • Vinicius
        • pedrogoulart
        • math.nascimento
        • kamikazi
        • +11

        Comentários 9

        140 .
        • Guilherme Guilherme: Em 04/11/2015 20:58

          Consegui tirar de boa, recomendo pra qm ta aprendendo.

        • Alan Alan: Em 05/10/2015 16:36

          Uma vido aula dessa ia ser boa!

        • fadelkadar77 fadelkadar77: Em 31/01/2014 23:09

          Cifra V2 é a correta !

        • gabriel gabriel: Em 20/09/2013 18:44

          Intao arrumem a cifra ae na moral

        • Edu Music M.Skt Edu Music M.Skt: Em 17/11/2011 10:59

          Já tinha concertado a cifra, foram e desarrumaram denovo! Afff

          • artixshao artixshao: Em 05/08/2013 20:14

            arruma aew mano , plis!

          • artixshao artixshao: Em 05/08/2013 20:20

            arruma d novo aew man, plis

          • netox netox: Em 04/10/2015 23:16

            Mano me passa esse último acorde da base, só falta essa. Por Favor, to ralando aqui e não consigo montar =(

          • Caíque Caíque: Em 11/11/2015 11:12

            acho que ali ta errado msm, o último acorde da base é Bb9

        140 cancelar

        conseguiu tocar?

        • •••

        covers

        Grave um vídeo tocando I Feel So Good Today e mande pra gente!

        Ex.: http://www.youtube.com/watch?v=0IvSvIwGdwk
        ver covers de outras músicas »
        0:00 / 0:00

        Capítulos

          2 versões de Guitar Proformatodownloadscontribuição
          play/pausefechar subir/descer velocidade
          6ª corda E5ª corda A4ª corda D3ª corda G2ª corda B1ª corda E
            acordes
            publicidade
            fechar
            ok