Enviar cifraEntrar

Zóio de Lula

Charlie Brown Jr.

Cifra: Principal
exibições 1.424.808
Tom: E
Intro: C#m  B5(9)


E|--4-4-|--4-4----|
B|--5-5-|--4-4----|
G|--6-6-|--4-4----|


(baixo)

G|--------------------------------- (3x)
D|-----------------------------2---
A|--4-4---2-4-2-----2-2---2-4------
E|--------------4-------4----------


G|---------------------------------
D|---------------------------------
A|--4-4---2-4-2----2---------------
E|--------------4------------------


(depois entra na música)

( C#m  G#m )
Tirou a roupa, entrou no mar
pensei meu Deus, que bom que fosse
Tu me apresenta essa mulher,
meu irmão te dava te um doce
Sem roupa ela é demais
Também por isso eu creio em Deus..

Ainda bem que eu trouxe até meu guarda-sol
Tenho toda tarde, tenho a vida inteira
Já se foi aquele trampo
da ladeira irmão
Ja se foi aquele trampo
da ladeira irmão

Riff Refrão:
(Com pedal de chorus + delay + overdrive)

  Legenda:
   ~~~: Deixar soar
   /: Slide

         D5(9)                                                                       C9
Beat:       1  i  e  a  2  i e  a  3  i  e   a   4  i   e  a   5  i e  a  6   i e a  7   i   e  a   8  i  e  a

Eb|--------------------------------0~~~~----------------0~~~~-------------------------------------0------------------
Bb|-----------------------------------------------------------------------------------------------3------------------
Gb|---------7~~~~----------------------7~~~~----------------7~~~~------------------------0--------------0------------
Db|---------7~~~~------------------------------7~~~~------------7~~~~----------------------------------------3-------
Ab|---------5~~~~--------------------------------------------------------------------3--------3----------------------
Eb|------------------------------------------------------------------------------------------------------------------

Meu escri - torio é na praia eu to sem-pre na  área mas eu não sou da sua laia não 
     
            D5(9)
Beat:       1  i  e  a  2  i e  a  3  i  e  a  4  i    e  a    5  i  e  a  6 i  e   a  7   i   e  a   8  i  e  a

Eb|---------------------0~~~~---------------0~~~~----------------------------------------------------------------
Bb|-----------------------------------------------------------------------------------10-------------------------
Gb|--------------------------7~~~~--------------7~~~~----------------10--------12--------------12----------------
Db|---------7~~~~-----------------7~~~~---------------7~~~~---10/12-----------------------------------12---------
Ab|---------5~~~~------------------------------------------------------------------------------------------------
Eb|--------------------------------------------------------------------------------------------------------------

Meu escri - torio é na praia eu to sem-pre na  área mas eu não sou da sua laia não 
     

        C#m
Meu escritório é na praia
Eu tô sempre na area
           Bm  E5
Mas eu não...


( C#m  G#m )
Então,
deixe viver
deixe ficar
Deixe estar como está...

Baixo e Guitarra (dobrados):


G|----------------------------------------------------|
D|----------------------------------------------------|
A|-4-4-4----6-7-6----------4-4-4----6-7-6---9---------|
E|----------------7-7--4-7----------------7-----------|



Meu Deus
me dê um motivo
pois eu pago tanto mico
Ela me ignora, na esperança
ainda fico
Eu tô fritando aqui, eu
vou me entregar,
não aguento mais
Mas se eu não falar hoje
talvez nunca veja mais,
pois

Baixo:


G|--------------------------------------------
D|--------------------------------------------
A|---4-4-------4---2-2-----2-2----------------
E|-----------4---4------4-------4-------------


 O dia passa , horas se estendem
 as, pessoas ao redor nunca me entendem
 O dia passa hora se estendem as,
 pessoas ao redor nunca me entendem

( C#m  G#m )
Então,
deixe viver
deixe ficar
Deixe estar como está...

/b : ele toca a nota e com o dedo ele sobe 1 tom
h: liga dura
/: arrasta
~~: tremolo, ou wah wah (sem wah wah fica dificil imitar esta musica)


Eb|---------9----------12h13h12----12h13h12----------------
Bb|-----------9--13/b-----------------------13-------------
Gb|---12b--------------------------------------12/10-------
Db|--------------------------------------------------------
Ab|--------------------------------------------------------
Eb|--------------------------------------------------------


Eb|-----------------8---5h6h5--------5h6h5----------
Bb|-----------5h6h8------------(8)------------------
Gb|-/9-/7-/5----------------------------------------
Db|-------------------------------------------------
Ab|-------------------------------------------------
Eb|-------------------------------------------------


Eb|----6-h5-----------------------------------------
Bb|-----------8h6h5----------------5h6--------------
Gb|-------------------7h5------5h7------------------
Db|------------------------7h5----------------------
Ab|-------------------------------------------------
Eb|-------------------------------------------------


Eb|-----11~~-----15~~-------------------------------
Bb|-----11~~-----15~~-------------------------------
Gb|-----11~~-----14~~-------------------------------
Db|-------------------------------------------------
Ab|-------------------------------------------------
Eb|-------------------------------------------------


(baixo e batera)

O dia passa horas se estendem as,
pessoas ao redor nunca me entendem
O dia passa horas se estendem
as, pessoas ao redor nunca me entendem

( C#m  G#m )
Tirou a roupa, entrou no mar
pensei meu Deus, que bom que fosse
Tu me apresenta essa mulher,
meu irmão te dava te um doce
Sem roupa ela é demais
Também por isso eu creio em Deus
Meu bom,meu Deus,meu bom, me traz
Ainda bem que eu trouxe até meu guarda-sol
Tenho toda tarde, tenho a vida inteira
Já sei foi aquele tempo
da ladeira irmão
Já se foi aquele tempo
Sangue Bão...

      C#m
Meu escritório é na praia
Eu tô sempre na area
           Bm  E5
Mas eu não ....

      C#m
Meu escritorio é na praia
Eu tô sempre na área
           Bm                  E5
Mas eu não sou daquela laia não

C#m G#m (4x)
Então,
deixe viver
deixe ficar
Deixe estar como está...

Aiê...

Saca só...
"As flores são bonitas em qualquer lugar do mundo
Muita gente tem forma, mas não tem conteúdo...


E|---------------16---------|
B|------9------------14-----|
G|--9-----------------------|
D|--------------------------|
A|--------------------------|
E|--------------------------|
  • 1
  • 2
  • 3
  • 4
  • 5
  • 6
  • 7
  • 8
  • 9
  • 10
  • 11
  • 12
    Acordes para:

      0 comentários

        mostrar mais comentários
        00:00 / 00:00
        outros vídeos desta música
        repetirqualidadeautomática
        • automática
        Outro vídeos desta música
          Capítulos
          • Início
          • Acordes da música
          • Tocando a música
          • Ensinando o ritmo (Reggae)
          • Encerramento
          00:00 / 00:00
          automática
          • automática
          Acordes para:violão e guitarra
          dificuldadeexibiçõescontribuições
          fecharplay/pause subir/descer velocidade
            acordes
            fechar
            OK
            Feedback