Cifra Club

Proibida Pra Mim

Charlie Brown Jr.

Cifra: Principal
exibições 851.821
Tom: A (com acordes na forma de A#) Afinação: Eb Ab Db Gb Bb Eb
Intro: F C A# G#

E|-------------------------------
B|-------------------------------
G|-2-2-2-2- 5-- 5--6-6-6-6-4--4--
D|-3-3-3-3- 5-- 5--8-8-8-8-6--6--
A|-3-3-3-3- 3-- 3--8-8-8-8-6--6--   (2x)
E|-1-1-1-1- x-- x--6-6-6-6-4--4--

Eb                A#
Ela achou meu cabelo engraçado
Cm             G#
Proibida pra mim NO WAY !
Eb                A#
Disse que nao podia ficar
Cm                     G#
mas levou a serio o que eu falei

Eb                      A#
Eu vou fazer de tudo que eu puder
Cm                    G#
Eu vou roubar essa mulher pra mim
Eb                      A#
Eu posso te ligar a qualquer hora
Cm            G#
Mas eu nem sei seu nome

Eb                    A#
Se nao eu quem vai fazer voce feliz ?
Cm                    G#
Se nao eu quem vai fazer voce feliz ?

Eb
guerra

( A#   Cm   G# )

Eb                 A#
Eu me flagrei pensando em voce
Cm                        G#
em tudo o que eu queria te dizer
Eb                  A#
Numa noite especialmente boa
Cm                             G#
Nao a nada mais que a gente possa fazer

Eb                      A#
Eu vou fazer de tudo que eu puder
Cm                    G#
Eu vou roubar essa mulher pra mim
Eb                      A#
Eu posso te ligar a qualquer hora
Cm            G#
Mas eu nem sei seu nome

Eb                    A#
Se nao eu quem vai fazer voce feliz ?
Cm                    G#
Se nao eu quem vai fazer voce feliz ?

Com distorção:

E|-------------------------------
B|-------------------------------
G|-2-2-2-2- 5-- 5--6-6-6-6-4--4--
D|-3-3-3-3- 5-- 5--8-8-8-8-6--6--
A|-3-3-3-3- 3-- 3--8-8-8-8-6--6--   (1X)
E|-1-1-1-1- x-- x--6-6-6-6-4--4--

e na 2ª:

E|---------------------------------
B|---------------------------------
G|-2-2-2-2- 5-- 5--6-/5-/7-/8-/10--
D|-3-3-3-3- 5-- 5--8-/5-/7-/8-/10--
A|-3-3-3-3- 3-- 3--8-/3-/5-/6-/8---   (1X) Com distorção
E|-1-1-1-1- x-- x--6-/X-/X-/X-/X---


Refrão (1x)

Na segunda vez  o final da música:

Eb     A#      Cm      G#    Abafa as cordas:(G#5 A#5 G#5 F#5)

Eb

Ficou bem parecido  quem puder corrigir este detalhe  faça como eu
atualiza a cifra//tablatura

Riff 1
|-------------------------------------------------------|
|--3-3-3/5--5-5-5/7--7-7-7/10-10-10-10-10-10-10-10-10---|
|-------------------------------------------------------|
|-------------------------------------------------------|
|-------------------------------------------------------|
|-------------------------------------------------------|

Riff 2

|-------------------------------------------------------|
|--4-4-4-4-4---3-4--4-4-4-4-3~~---4-4-4-4-4-3-----------|
|---------------------------------------------3~~~~-----|
|-------------------------------------------------------|
|-------------------------------------------------------|
|-------------------------------------------------------|

|-------------------------------------------------------|
|--6-------3--6-5-6-5--3--6---------------6-------------|
|----5-5p6------------------5-5p6-5-5-6-5---------------|
|-------------------------------------------------------|
|-------------------------------------------------------|
|-------------------------------------------------------|
Acordes para:

    0 comentários

      mostrar mais comentários

      Conseguiu tocar?

      72tocaram0ainda não

      Grave um vídeo tocando Proibida Pra Mim e mande pra gente!

      00:00 / 00:00
      outros vídeos desta música
      repetirqualidadeautomática
      Outro vídeos desta música
        00:00 / 00:00
        automática
        Capítulos
        • Início
        • Acordes da música
        • Tocando da introdução ao refrão
        • Ensinando o dedilhado
        • Encerramento
        OK