Notificações Amigos pendentes

      Charlie Brown Jr.

      Proibida Pra Mim (grazon)

      814.315 exibições
      Tom: A# Afinação: Eb Ab Db Gb Bb Eb
      Intro: F C A# G#
      
      
      E|-------------------------------
      B|-------------------------------
      G|-2-2-2-2- 5-- 5--6-6-6-6-4--4--
      D|-3-3-3-3- 5-- 5--8-8-8-8-6--6--
      A|-3-3-3-3- 3-- 3--8-8-8-8-6--6--   (2x)
      E|-1-1-1-1- x-- x--6-6-6-6-4--4--
      
      
      Eb                A#
      Ela achou meu cabelo engraçado
      Cm             G#
      Proibida pra mim NO WAY !
      Eb                A#
      Disse que nao podia ficar
      Cm                     G#
      mas levou a serio o que eu falei
      
      Eb                      A#
      Eu vou fazer de tudo que eu puder
      Cm                    G#
      Eu vou roubar essa mulher pra mim
      Eb                      A#
      Eu posso te ligar a qualquer hora
      Cm            G#
      Mas eu nem sei seu nome
      
      Eb                    A#
      Se nao eu quem vai fazer voce feliz ?
      Cm                    G#
      Se nao eu quem vai fazer voce feliz ?
      
      Eb
      guerra
      
      ( A#   Cm   G# )
      
      Eb                 A#
      Eu me flagrei pensando em voce
      Cm                        G#
      em tudo o que eu queria te dizer
      Eb                  A#
      Numa noite especialmente boa
      Cm                             G#
      Nao a nada mais que a gente possa fazer
      
      Eb                      A#
      Eu vou fazer de tudo que eu puder
      Cm                    G#
      Eu vou roubar essa mulher pra mim
      Eb                      A#
      Eu posso te ligar a qualquer hora
      Cm            G#
      Mas eu nem sei seu nome
      
      Eb                    A#
      Se nao eu quem vai fazer voce feliz ?
      Cm                    G#
      Se nao eu quem vai fazer voce feliz ?
      
      Com distorção:
      
      
      E|-------------------------------
      B|-------------------------------
      G|-2-2-2-2- 5-- 5--6-6-6-6-4--4--
      D|-3-3-3-3- 5-- 5--8-8-8-8-6--6--
      A|-3-3-3-3- 3-- 3--8-8-8-8-6--6--   (1X)
      E|-1-1-1-1- x-- x--6-6-6-6-4--4--
      
      
      e na 2ª:
      
      
      E|---------------------------------
      B|---------------------------------
      G|-2-2-2-2- 5-- 5--6-/5-/7-/8-/10--
      D|-3-3-3-3- 5-- 5--8-/5-/7-/8-/10--
      A|-3-3-3-3- 3-- 3--8-/3-/5-/6-/8---   (1X) Com distorção
      E|-1-1-1-1- x-- x--6-/X-/X-/X-/X---
      
      
      
      Refrão (1x)
      
      Na segunda vez  o final da música:
      
      Eb     A#      Cm      G#    Abafa as cordas:(G#5 A#5 G#5 F#5)
      
      Eb
      
      Ficou bem parecido  quem puder corrigir este detalhe  faça como eu
      atualiza a cifra//tablatura
      
      Riff 1
      
      |-------------------------------------------------------|
      |--3-3-3/5--5-5-5/7--7-7-7/10-10-10-10-10-10-10-10-10---|
      |-------------------------------------------------------|
      |-------------------------------------------------------|
      |-------------------------------------------------------|
      |-------------------------------------------------------|
      
      
      Riff 2
      
      
      |-------------------------------------------------------|
      |--4-4-4-4-4---3-4--4-4-4-4-3~~---4-4-4-4-4-3-----------|
      |---------------------------------------------3~~~~-----|
      |-------------------------------------------------------|
      |-------------------------------------------------------|
      |-------------------------------------------------------|
      
      
      |-------------------------------------------------------|
      |--6-------3--6-5-6-5--3--6---------------6-------------|
      |----5-5p6------------------5-5p6-5-5-6-5---------------|
      |-------------------------------------------------------|
      |-------------------------------------------------------|
      |-------------------------------------------------------|
      
        Composição: Charlie Brown Jr.Colaboração e revisão:
        • Rick
        • Chico
        • cbsedu
        • diucleverson
        • +2

        Comentários 26

        140 .
        • lucas.orlandobernardes lucas.orlandobernardes: Em 20/10/2014 17:51

          Na moral quem precisa de vídeo aula?É só vc ter o básico da guitarra e ja tira mds mto fácil

        • maysah.lilian maysah.lilian: Em 19/08/2014 21:26

          quem não conseguir fazer o acorde de Bm pode tambem trocar por Em fica bem legal tambem

        • andreluiz.mendonca.927 andreluiz.mendonca.927: Em 18/06/2014 07:58

          vídeo aula antigamente era uma bosta

        • kleverton.tiago.3 kleverton.tiago.3: Em 03/01/2014 14:38

          galera alguem sabe uma outra batida para essa musica sem ser um dedilhado?

          • Fabricio Fabricio: Em 20/01/2014 05:40

            tenta reggae em 2 tempos na mesma nota

          • Fabricio Fabricio: Em 20/01/2014 05:40

            tenta reggae em 2 tempos na mesma nota

        • kleverton.tiago.3 kleverton.tiago.3: Em 02/01/2014 23:30

          ei alguem sabe uma outra batida para
          essa música ?

        • lukinhasamorim lukinhasamorim: Em 09/06/2013 16:15

          COlocando a cifra no TOM : A fica mais facil // fica D A BM G :)

        • dan_guitar97 dan_guitar97: Em 06/05/2013 11:28

          Se a cifra diz pra descer um tom da afinação e coloca Eb, A

        140 cancelar
        0:00 / 0:00
        Esta versão de cifra não é usada na videoaula. Exiba a cifra correta.
        play/pausefechar subir/descer velocidade
        6ª corda E5ª corda A4ª corda D3ª corda G2ª corda B1ª corda E
          acordes
          publicidade
          fechar
          ok