Notificações Amigos pendentes

      Charlie Brown Jr.

      Lugar Ao Sol

      1.605.211 exibições
      Tom: A#
      Intro:
      1ª parte:
      
      E|--------------------------|--3-----6--3-------3--|
      B|---3-----------------3----|----3-6------6-3-6----|
      G|-------3-5---5---3-5------|----------------------|
      D|-5---5-----3---3--------6-|----------------------|
      A|--------------------------|----------------------|
      E|--------------------------|----------------------|
      
      
      2ª parte:                                  (abafado)
      
      E|-------------------------|-~-------------------|
      B|---3-----------------3---|-3-------------------|
      G|-------3-5---5---3-5-----|-3-------------------|
      D|-5---5-----3---3---------|-1-------------------|
      A|-------------------------|---------------------|
      E|-------------------------|---------------------|
      
      
      E|-------------------------|--------------------|
      B|---3---------------------|--------------------|
      G|-------3-5---5---3-5-7---|-777-10-710-710-----|
      D|-5---5-----3---3---------|-888--8-8-8-8-8-----|
      A|-5---5-----3---3---------|-666--6-6-6-6-6-----|
      E|-3---3-----1---1---------|--------------------|
      
      
      Gm                       F
        Que bom viver, como é bom sonhar
                 Eb7+
      E o que ficou pra trás passou e eu não me
             Gm                F
      Importei     foi ate melhor
                  Eb7+
      Tive que pensar em algo novo que eu fizesse sentido
            Gm                        F
      Ainda vejo o mundo com os olhos de criança
              Eb7+
      Que só quer brincar e não tanta "responsa"
            Gm
      Mas a vida cobra sério
            F                  Eb7+
      E realmente não dá pra fugir
      
      
               Eb
      E|-----6-------------------|
      B|-----6--8~---------------|
      G|-----8----7~-------------|
      D|-----8------8~-----------|
      A|-----6-------------------|
      E|-------------------------|
      
      
      Refrão 2x:
       Bb7+                F
      mas livre pra poder sorrir (sim)
      Gm                 Eb
      livre pra poder buscar
              Bb7+    F  Ebm7
      o meu lugar ao sol
      
      
      E|-----1~-----------------1~--------66666------|
      B|-----1~-----------------1~--------77777------|
      G|-333-2~-------------333-2~---8888888888------|
      D|-333-3~-55555-88888-333-3~---8888888888------|
      A|-111-1~-55555-66666-111-1~---6666666666------|
      E|--------33333--------------------------------|
      
      
      E|-------------------------|--------------------|
      B|---3---------------------|--------------------|
      G|-------3-5---5---3-5-7---|-777-10-710-710-----|
      D|-5---5-----3---3---------|-888--8-8-8-8-8-----|
      A|-5---5-----3---3---------|-666--6-6-6-6-6-----|
      E|-3---3-----1---1---------|--------------------|
      
      
      Gm                    F
        Um dia eu espero te reencontrar
            Eb7+
      Numa bem melhor, cada um tem seu caminho
         Gm                 F
      Eu sei que foi até melhor
                Eb7+
      Irmãos do mesmo cristo, quero e não desisto
           Gm
      Caro pai como é bom
                F                      Eb7+
      Ter com o que se orgulhar a vida pode passar,
      
      Não estou sozinho
          Gm
      Eu sei se eu tiver fé
                F         Eb7+
      Eu volto até sonhar
      
      
              Eb
      E|-----6----------10~------|
      B|-----6--8~------11~------|
      G|-----8----7~-----8~------|
      D|-----8------8~-----------|
      A|-----6-------------------|
      E|-------------------------|
      
      
      Refrão 2x:
       Bb7+                F
      Mas livre pra poder sorrir (sim)
      Gm                 Eb
      livre pra poder buscar
              Bb7+    F  Ebm7
      o meu lugar ao sol
      
      
      E|-----1~-----------------1~--------66666------|
      B|-----1~-----------------1~--------77777------|
      G|-333-2~-------------333-2~---8888888888------|
      D|-333-3~-55555-88888-333-3~---8888888888------|
      A|-111-1~-55555-66666-111-1~---6666666666------|
      E|--------33333--------------------------------|
      
      
      E|-------------------------|--------------------|
      B|---3---------------------|--------------------|
      G|-------3-5---5---3-5-7---|-777-10-710-710-----|
      D|-5---5-----3---3---------|-888--8-8-8-8-8-----|
      A|-5---5-----3---3---------|-666--6-6-6-6-6-----|
      E|-3---3-----1---1---------|--------------------|
      
      
         Gm      F
      O amor é assim
          Eb
      É a paz de deus em sua casa
         Gm      F
      O amor é assim
        Eb
      A paz de deus que nunca acaba
         Gm      F
      O amor é assim
          Eb
      É a paz de deus em sua casa
      
      O amor é assim
      É a paz de Deus que  (2ª parte da intro)
      ... nunca acaba!!!
      
      1ª guitarra 3x:
      
      E|-------------------------------|
      B|-------------------------------|
      G|--5-5-5-5-5-8-8-8-8-8-8-8------|
      D|--5-5-5-5-5-8-8-8-8-8-8-8------|
      A|--3-3-3-0-3-6-6-6-6-6-6-6------|
      E|-------------------------------|
      
      
      2ª guitarra 2x:
      
      E|-------------------------|
      B|-1313-13--8--------------|
      G|--x-x--x--x--------------|
      D|-1010-10--5--------------|
      A|-------------------------|
      E|-------------------------|
      
      
      2ª guitarra:
      
      E|---------------------------|
      B|-13-11-13-13-13-15-13-11-7-|
      G|--x--x--x--x--x--x--x--x-x-|
      D|-10--8-10-10-10-12-10--8-5-|
      A|---------------------------|
      E|---------------------------|
      
      
      E|----3-----------8-6-8-6...2ªguita-----|
      B|----3---------------------------------|
      G|----3---------------------------------|
      D|--5-5---5-4-3--3-3-3-3----------------|
      A|--5-5---5-4-3--3-3-3-3----------------|
      E|--3-3---3-2-1--1-1-1-1----------------|
      
      
      ( Gm  F  Eb ) (guitarra 1)
      
      (solo) (guitarra 2)
      
      
      E|-10-13-10-13-10-13-10-13-10-13/15-15-15-15-15-15-13-|
      B|----------------------------------------------------|
      G|----------------------------------------------------|
      D|----------------------------------------------------|
      A|----------------------------------------------------|
      E|----------------------------------------------------|
      
      
      E|13-13-13-13-13-10-8-6-8-8/10--6--6------------------|
      B|--------------------6-------------------------------|
      G|--------------------7-10---7--10-7--0---------------|
      D|--------------------8-8--8-8--8--8------------------|
      A|--------------------6-6--6-6--6--6------------------|
      E|----------------------------------------------------|
      
      
      E|-------------------------|--------------------|
      B|---3---------------------|--------------------|
      G|-------3-5---5---3-5-7---|-777-10-710-710-----|
      D|-5---5-----3---3---------|-888--8-8-8-8-8-----|
      A|-5---5-----3---3---------|-666--6-6-6-6-6-----|
      E|-3---3-----1---1---------|--------------------|
      
      
            Gm
      Nossas vidas, nossos sonhos
            F           Eb7+
      Têm o mesmo valor
             Gm
      Nossas vidas, nossos sonhos
            F
      Têm o mesmo valor...
            Eb7+
      ...eu vou com você para onde você for
      Gm                    F
        eu descobri que é azul
                 Eb7+
      A cor da parede da casa de deus
      
      (2ª parte da intro)
      
      Gm                F                  Eb7+
        e não há mais ninguém como você e eu!!!
        Composição: Marcão/Chorão/Luiz Cosme BenícioColaboração e revisão:
        • Natã
        • Breno Bernardes
        • Rick
        • Alison
        • +5

        Comentários 39

        140 .
        • Victor Victor: Em 22/02/2016 20:01

          sou patyy, ha5 anos eu morri atropelada. Envie essa msg 10 múscs ou as 2:00 da manha dessa noite eu vou aparecer no seu quarto e te matarr.

        • tiago tiago: Em 16/09/2015 20:45

          vou mandar um vídeo de uma maneira errada e simplessinha

        • william william: Em 22/12/2014 22:29

          da pra toca essa musica sem capo??

        • Rubens Rubens: Em 20/10/2014 18:07

          Ao imprimir a cifra e letra, sai tudo atrapalhado, desconfigurado. Como posso imprimir a cifra onde a letra saia corretamente? Alguém pode m

          • Mario Mario: Em 02/11/2014 23:05

            Copia a cifra, joga no Word,dai você imprime

        • Leonardo Leonardo: Em 09/08/2014 22:01

          Pessoal para quem quiser assistir o Marcão ensinando essa música é só acrescentar isso depois do url do youtube /watch?v=VjYy0jiAJGU

        • Fernando Fernando: Em 06/07/2014 20:18

          Bem que alguém que manja poderia postar umas notas alternativas mais fáceis para o solo.

        • gabriel gabriel: Em 15/04/2014 12:44

          Mano faz vídeo aula de Camisa 10 joga bola até na chuva. Eu procuro em todo lugar e não acho. vlw

        • Arthur Arthur: Em 04/04/2014 11:48

          #LUTO CBJR curti ae

        140 cancelar
        0:00 / 0:00
        Esta versão de cifra não é usada na videoaula. Exiba a cifra correta.
        2 versões de bateria exibições contribuição e correção
        1 versão de partiturasformatodownloadscontribuição
        play/pausefechar subir/descer velocidade
        6ª corda E5ª corda A4ª corda D3ª corda G2ª corda B1ª corda E
          acordes
          publicidade
          fechar
          ok