Cifra Club

Lugar Ao Sol

Charlie Brown Jr.

Cifra: Principal (violão e guitarra)
exibições 1.948.715
Tom: G#m (forma dos acordes no tom de Gm) Afinação: Eb Ab Db Gb Bb Eb Capotraste na 2ª casa
[Introdução] F#m  E5  D7M
             F#m  E5  D7M

   F#m           E5
E|------------------------------------------|
B|-----2-----------------------2------------|
G|---------2-4-------4-----2-4--------------|
D|-4-----4-------2-------2------------------|
A|------------------------------------------|
E|------------------------------------------|

   D7M
E|-----2-----5---2---0-------0-2------------|
B|-------2-5-------------2------------------|
G|------------------------------------------|
D|-0----------------------------------------|
A|------------------------------------------|
E|------------------------------------------|

   F#m
E|------------------------------------------|
B|-----2-----------------------2------------|
G|---------2-4-------4-----2-4--------------|
D|-4-----4-------2-------2------------------|
A|------------------------------------------|
E|------------------------------------------|

   D7M
E|-2----------------------------------------|
B|-2----------------------------------------|
G|-2----------------------------------------|
D|-0----------------------------------------|
A|------------------------------------------|
E|------------------------------------------|


[Primeira Parte]

   F#m           E5
E|------------------------------------------|
B|-----2-----------------------2------------|
G|---------2-4-------4-----2h4---6p4p2------|
D|-4-----4-------2-------2------------------|
A|-4-------------2--------------------------|
E|-2-------------0--------------------------|

   D7M
E|-----2------------------------------------|
B|-----2-----5-5-5---2---5---2-2------------|
G|-----2-----2-2-2---2---2---2-2------------|
D|-0---------------0---0---0----------------|
A|------------------------------------------|
E|------------------------------------------|

   F#m           E5
E|------------------------------------------|
B|-----2-----------------------2------------|
G|---------2-4-------4-----2h4---6p4p2------|
D|-4-----4-------2-------2------------------|
A|-4-------------2--------------------------|
E|-2-------------0--------------------------|

   D7M
E|-----2-----2-2-2---2-2-2---2-2-2----------|
B|-----2-----2-2-2---2-2-2---2-2-2----------|
G|-----2-----2-2-2---2-2-2---2-2-2----------|
D|-0----------------------------------------|
A|------------------------------------------|
E|------------------------------------------|

   F#m           E5
E|------------------------------------------|
B|-----2-----------------------2------------|
G|---------2-4-------4-----2h4---6p4p2------|
D|-4-----4-------2-------2------------------|
A|-4-------------2--------------------------|
E|-2-------------0--------------------------|

   D7M
E|-----2------------------------------------|
B|-----2-----5-5-5---2---5---2-2------------|
G|-----2-----2-2-2---2---2---2-2------------|
D|-0---------------0---0---0----------------|
A|------------------------------------------|
E|------------------------------------------|

   F#m           E5
E|------------------------------------------|
B|-----2-----------------------2------------|
G|---------2-4-------4-----2h4---6p4p2------|
D|-4-----4-------2-------2------------------|
A|-4-------------2--------------------------|
E|-2-------------0--------------------------|

   D7M
E|-2-----2----------------------------------|
B|-2--------2-------------------------------|
G|-2----------2-----------------------------|
D|-0---0------------------------------------|
A|------------------------------------------|
E|------------------------------------------|

F#m
    Que bom viver
        E5
Como é bom sonhar
           D7M
E o que ficou pra trás passou 
                  F#m
E eu não me importei
            E5
Foi até melhor
             D7M
Tive que pensar 

Em algo novo que fizesse sentido
       F#m
Ainda vejo o mundo 
             E5
Com os olhos    de criança
         D7M
Que só quer brincar 

E não tanta responsa
       F#m
Mas a vida cobra sério 
       E5                 D7M
E realmente não dá pra fugir


[Primeiro Refrão]

   A7M       A9  
E|---------------0--------------------------|
B|---------------0--------------------------|
G|---------------6--------------------------|
D|-6-6-6-6-6-7---7--------------------------|
A|-7-7-7-7-7-7------------------------------|
E|-5-5-5-5-5-5-5----------------------------|

   F#m9          D5
E|------------------------------------------|
B|------------------------------------------|
G|---------------7-7-7-7-7-7-7--------------|
D|-6-6-6-6-6-6-6-7-7-7-7-7-7-7--------------|
A|-4-4-4-4-4-4-4-5-5-5-5-5-5-5-5h7----------|
E|-2-2-2-2-2-2-2----------------------------|

   A7M       A9  
E|---------------0--------------------------|
B|---------------0--------------------------|
G|---------------6--------------------------|
D|-6-6-6-6-6-7---7--------------------------|
A|-7-7-7-7-7-7------------------------------|
E|-5-5-5-5-5-5-5----------------------------|

   D5            Dm7         F5/E  F5
E|------------------------------------------|
B|------------------------------------------|
G|-7-7-7-7-7-7-7-10-10-10-10-10-10-10-10-10-|
D|-7-7-7-7-7-7-7-10-10-10-10-10-10-10-10-10-|
A|-5-5-5-5-5-5-5--5--5--5--5--7--7--8--8--8-|
E|------------------------------------------|

 A7M             A9 
Livre pra poder sorrir, sim
 F#m9               D5
Livre pra poder buscar 
         A7M       A9  ( D5  Dm7  F5/E  F5 )
O meu lugar ao sol

   A7M       A9  
E|---------------0--------------------------|
B|---------------0--------------------------|
G|---------------6--------------------------|
D|-6-6-6-6-6-7---7--------------------------|
A|-7-7-7-7-7-7------------------------------|
E|-5-5-5-5-5-5-5----------------------------|

   F#m9          D5
E|------------------------------------------|
B|------------------------------------------|
G|---------------7-7-7-7-7-7-7--------------|
D|-6-6-6-6-6-6-6-7-7-7-7-7-7-7--------------|
A|-4-4-4-4-4-4-4-5-5-5-5-5-5-5-5h7----------|
E|-2-2-2-2-2-2-2----------------------------|

   A7M       A9  
E|---------------0--------------------------|
B|---------------0--------------------------|
G|---------------6--------------------------|
D|-6-6-6-6-6-7---7--------------------------|
A|-7-7-7-7-7-7------------------------------|
E|-5-5-5-5-5-5-5----------------------------|

   D5            Dm7         F5/E  F5
E|------------------------------------------|
B|------------------------------------------|
G|-7-7-7-7-7-7-7-10-10-10-10-10-10-10-10-10-|
D|-7-7-7-7-7-7-7-10-10-10-10-10-10-10-10-10-|
A|-5-5-5-5-5-5-5--5--5--5--5--7--7--8--8--8-|
E|------------------------------------------|

 A7M             A9
Livre pra poder sorrir, sim
 F#m9               D5
Livre pra poder buscar 
         A7M       A9  ( D5  Dm7  F5/E  F5 )       
O meu lugar ao sol


[Segunda Parte]

   F#m           E5
E|------------------------------------------|
B|-----2-----------------------2------------|
G|---------2-4-------4-----2h4---6p4p2------|
D|-4-----4-------2-------2------------------|
A|-4-------------2--------------------------|
E|-2-------------0--------------------------|

   D7M
E|-----2------------------------------------|
B|-----2-----5-5-5---2---5---2-2------------|
G|-----2-----2-2-2---2---2---2-2------------|
D|-0---------------0---0---0----------------|
A|------------------------------------------|
E|------------------------------------------|

   F#m           E5
E|------------------------------------------|
B|-----2-----------------------2------------|
G|---------2-4-------4-----2h4---6p4p2------|
D|-4-----4-------2-------2------------------|
A|-4-------------2--------------------------|
E|-2-------------0--------------------------|

   D7M
E|-----2-----2-2-2---2-2-2---2-2-2----------|
B|-----2-----2-2-2---2-2-2---2-2-2----------|
G|-----2-----2-2-2---2-2-2---2-2-2----------|
D|-0----------------------------------------|
A|------------------------------------------|
E|------------------------------------------|

   F#m           E5
E|------------------------------------------|
B|-----2-----------------------2------------|
G|---------2-4-------4-----2h4---6p4p2------|
D|-4-----4-------2-------2------------------|
A|-4-------------2--------------------------|
E|-2-------------0--------------------------|

   D7M
E|-----2------------------------------------|
B|-----2-----5-5-5---2---5---2-2------------|
G|-----2-----2-2-2---2---2---2-2------------|
D|-0---------------0---0---0----------------|
A|------------------------------------------|
E|------------------------------------------|

   F#m           E5
E|------------------------------------------|
B|-----2-----------------------2------------|
G|---------2-4-------4-----2h4---4----------|
D|-4-----4-------2-------2------------------|
A|-4-------------2--------------------------|
E|-2-------------0--------------------------|

   D7M
E|-2-----2---------14-----------------------|
B|-2--------2------14-----------------------|
G|-2----------2----14-----------------------|
D|-0---0------------------------------------|
A|------------------------------------------|
E|------------------------------------------|

F#m                      E5
    Um dia eu espero te reencontrar 
      D7M
Numa bem melhor

Cada um tem seu caminho
    F#m            E5
Eu sei foi até melhor
           D7M
Irmãos do mesmo Cristo

Eu quero e não desisto
      F#m
Caro Pai
                     E5
Como é bom ter por que se orgulhar
        D7M
A vida pode passar

Não estou sozinho
    F#m
Eu sei se eu tiver fé 
           E5         D7M 
Eu volto até a sonhar


[Segundo Refrão]

   A7M       A9  
E|---------------0--------------------------|
B|---------------0--------------------------|
G|---------------6--------------------------|
D|-6-6-6-6-6-7---7--------------------------|
A|-7-7-7-7-7-7------------------------------|
E|-5-5-5-5-5-5-5----------------------------|

   F#m9          D5
E|------------------------------------------|
B|------------------------------------------|
G|---------------7-7-7-7-7-7-7--------------|
D|-6-6-6-6-6-6-6-7-7-7-7-7-7-7--------------|
A|-4-4-4-4-4-4-4-5-5-5-5-5-5-5-5h7----------|
E|-2-2-2-2-2-2-2----------------------------|

   A7M       A9  
E|---------------0--------------------------|
B|---------------0--------------------------|
G|---------------6--------------------------|
D|-6-6-6-6-6-7---7--------------------------|
A|-7-7-7-7-7-7------------------------------|
E|-5-5-5-5-5-5-5----------------------------|

   D5            Dm7         F5/E  F5
E|------------------------------------------|
B|------------------------------------------|
G|-7-7-7-7-7-7-7-10-10-10-10-10-10-10-10-10-|
D|-7-7-7-7-7-7-7-10-10-10-10-10-10-10-10-10-|
A|-5-5-5-5-5-5-5--5--5--5--5--7--7--8--8--8-|
E|------------------------------------------|

 A7M             A9 
Livre pra poder sorrir, sim
 F#m9               D5
Livre pra poder buscar 
         A7M       A9  ( D5  Dm7  F5/E  F5 )
O meu lugar ao sol

   A7M       A9  
E|---------------0--------------------------|
B|---------------0--------------------------|
G|---------------6--------------------------|
D|-6-6-6-6-6-7---7--------------------------|
A|-7-7-7-7-7-7------------------------------|
E|-5-5-5-5-5-5-5----------------------------|

   F#m9          D5
E|------------------------------------------|
B|------------------------------------------|
G|---------------7-7-7-7-7-7-7--------------|
D|-6-6-6-6-6-6-6-7-7-7-7-7-7-7--------------|
A|-4-4-4-4-4-4-4-5-5-5-5-5-5-5-5h7----------|
E|-2-2-2-2-2-2-2----------------------------|

   A7M       A9  
E|---------------0--------------------------|
B|---------------0--------------------------|
G|---------------6--------------------------|
D|-6-6-6-6-6-7---7--------------------------|
A|-7-7-7-7-7-7------------------------------|
E|-5-5-5-5-5-5-5----------------------------|

   D5            Dm7         F5/E  F5
E|------------------------------------------|
B|------------------------------------------|
G|-7-7-7-7-7-7-7-10-10-10-10-10-10-10-10-10-|
D|-7-7-7-7-7-7-7-10-10-10-10-10-10-10-10-10-|
A|-5-5-5-5-5-5-5--5--5--5--5--7--7--8--8--8-|
E|------------------------------------------|

 A7M             A9
Livre pra poder sorrir, sim
 F#m9               D5
Livre pra poder buscar 
         A7M       A9  ( D5  Dm7  F5/E  F5 )       
O meu lugar ao sol


[Terceira Parte]

   F#m           E5
E|------------------------------------------|
B|-----2-----------------------2------------|
G|---------2-4-------4-----2h4---6p4p2------|
D|-4-----4-------2-------2------------------|
A|-4-------------2--------------------------|
E|-2-------------0--------------------------|

   D7M
E|-----2------------------------------------|
B|-----2-----5-5-5---2---5---2-2------------|
G|-----2-----2-2-2---2---2---2-2------------|
D|-0---------------0---0---0----------------|
A|------------------------------------------|
E|------------------------------------------|

   F#m           E5
E|------------------------------------------|
B|-----2-----------------------2------------|
G|---------2-4-------4-----2h4---6p4p2------|
D|-4-----4-------2-------2------------------|
A|-4-------------2--------------------------|
E|-2-------------0--------------------------|

   D7M
E|-----2-----2-2-2---2-2-2---2-2-2----------|
B|-----2-----2-2-2---2-2-2---2-2-2----------|
G|-----2-----2-2-2---2-2-2---2-2-2----------|
D|-0----------------------------------------|
A|------------------------------------------|
E|------------------------------------------|

   F#m           E5
E|------------------------------------------|
B|-----2-----------------------2------------|
G|---------2-4-------4-----2h4---6p4p2------|
D|-4-----4-------2-------2------------------|
A|-4-------------2--------------------------|
E|-2-------------0--------------------------|

   D7M
E|-----2------------------------------------|
B|-----2-----5-5-5---2---5---2-2------------|
G|-----2-----2-2-2---2---2---2-2------------|
D|-0---------------0---0---0----------------|
A|------------------------------------------|
E|------------------------------------------|

   F#m           E5
E|------------------------------------------|
B|-----2-----------------------2------------|
G|---------2-4-------4-----2-4---4----------|
D|-4-----4-------2-------2------------------|
A|------------------------------------------|
E|------------------------------------------|

   D7M
E|-2----------------------------------------|
B|-2----------------------------------------|
G|-2----------------------------------------|
D|-0----------------------------------------|
A|------------------------------------------|
E|------------------------------------------|

    F#m     E5
O amor é assim
     D7M
É a paz de Deus em sua casa
    F#m     E5
O amor é assim 
     D7M
É a paz de Deus que nunca acaba
    F#m     E5
O amor é assim
     D7M
É a paz de Deus em sua casa
    F#m     E5
O amor é assim
     D7M
É a paz de Deus que nunca acaba


[Ponte] B5  ( A5  B5 ) D5
        B5  ( A5  B5 ) D5
        ( B5  A5  B5 ) ( A5  B5 ) D5
        F#m  ( F#5  F5  E5 ) 

Guitarra Base
E|------------------------------------------|
B|------------------------------------------|
G|-4---4---4-2-4-7---7-7---7-7-7-7----------|
D|-4---4---4-2-4-7---7-7---7-7-7-7----------|
A|-2---2---2-0-2-5---5-5---5-5-5-5----------|
E|------------------------------------------|
   ↓   ↓   ↓ ↑ ↓ ↑   ↑ ↓   ↓ ↑ ↓ ↑

E|------------------------------------------|
B|------------------------------------------|
G|-4---4---4-2-4-7---7-7---7-7-7-7----------|
D|-4---4---4-2-4-7---7-7---7-7-7-7----------|
A|-2---2---2-0-2-5---5-5---5-5-5-5----------|
E|------------------------------------------|
   ↓   ↓   ↓ ↑ ↓ ↑   ↑ ↓   ↓ ↑ ↓ ↑

E|------------------------------------------|
B|------------------------------------------|
G|-4-2-4---4-2-4-7---7-7---7-7-7-7----------|
D|-4-2-4---4-2-4-7---7-7---7-7-7-7----------|
A|-2-0-2---2-0-2-5---5-5---5-5-5-5----------|
E|------------------------------------------|
   ↓ ↑ ↓   ↓ ↑ ↓ ↑   ↑ ↓   ↓ ↑ ↓ ↑


E|-----2------------------------------------|
B|-----2------------------------------------|
G|-----2------------------------------------|
D|-4---4-4-4-4-3-2---2-2-2---2-2-2----------|
A|-4-----4-4-4-3-2---2-2-2---2-2-2----------|
E|-2-----2-2-2-1-0---0-0-0---0-0-0----------|
   ↓   ↓ ↑ ↓ ↑ ↓ ↑   ↑ ↓ ↑   ↑ ↓ ↑


Guitarra Solo
E|-7---7---7-5-5---------------------------------------|
B|---------------7---7-7-7---7-7-7---------------------|
G|-4---4---4-2-2---------------------------------------|
D|---------------4---4-4-4---4-4-4---------------------|
A|-----------------------------------------------------|
E|-----------------------------------------------------|
   ↓   ↓   ↓ ↑ ↓ ↑   ↑ ↓ ↑   ↑ ↓ ↑

E|-7---7---7-5-5---------------------------------------|
B|---------------7---7-7-7---7-7-7---------------------|
G|-4---4---4-2-2---------------------------------------|
D|---------------4---4-4-4---4-4-4---------------------|
A|-----------------------------------------------------|
E|-----------------------------------------------------|
   ↓   ↓   ↓ ↑ ↓ ↑   ↑ ↓ ↑   ↑ ↓ ↑

E|-7-7-7---7-7-7/9-7---5-------------------------------|
B|-------------------------7---7-7-7-7---7-7-7-7-6-5---|
G|-4-4-4---4-4-4/6-4---2-------------------------------|
D|-------------------------4---4-4-4-4---4-4-4-4-3-2---|
A|-----------------------------------------------------|
E|-----------------------------------------------------|
   ↓ ↑ ↓   ↓ ↑ ↓   ↑   ↑   ↑   ↑ ↓ ↑ ↓   ↓ ↑ ↓ ↑ ↓ ↑

E|-5---7---5-7/----------------------------------------|
B|-----------------------------------------------------|
G|-2---4---2-4/----------------------------------------|
D|-----------------------------------------------------|
A|-----------------------------------------------------|
E|-----------------------------------------------------|
   ↑   ↑   ↑ ↓


[Solo] F#m  E5  D7M
       F#m  E5  D7M

Guitarra Solo
E|-9---9-9-9-9-9-12---9---12---9-12\9------------------|
B|-----------------------------------------------------|
G|-6---6-6-6-6-6--9---6----9---6--9\6------------------|
D|-----------------------------------------------------|
A|-----------------------------------------------------|
E|-----------------------------------------------------|
   ↓   ↓ ↑ ↓ ↑ ↓  ↑   ↑    ↑   ↑  ↓

E|-14---14---14-14-14-14---14-14-14---14-14------------|
B|-----------------------------------------------------|
G|-11---11---11-11-11-11---11-11-11---11-11------------|
D|-----------------------------------------------------|
A|-----------------------------------------------------|
E|-----------------------------------------------------|
    ↓    ↓    ↓  ↑  ↓  ↑    ↑  ↓  ↑    ↑  ↓

E|-12-12-12---12---12-12-12-9---7---5---7-7-7/9--------|
B|-----------------------------------------------------|
G|--9--9--9----9----9--9--9-6---4---2---4-4-4/6--------|
D|-----------------------------------------------------|
A|-----------------------------------------------------|
E|-----------------------------------------------------|
    ↓  ↑  ↓    ↓    ↓  ↑  ↓ ↑   ↑   ↑   ↑ ↓ ↓

E|-5---5-5-5-5-5-5-5-5-5-5-5-5-5-----------------------|
B|-----------------------------------------------------|
G|-2---2-2-2-2-2-2-2-2-2-2-2-2-2-----------------------|
D|-----------------------------------------------------|
A|-----------------------------------------------------|
E|-----------------------------------------------------|
   ↓   ↓ ↓ ↓ ↓ ↓ ↓ ↓ ↓ ↓ ↓ ↓ ↓ ↓ 


[Final]

   F#m           E5
E|------------------------------------------|
B|-----2-----------------------2------------|
G|---------2-4-------4-----2h4---6p4p2------|
D|-4-----4-------2-------2------------------|
A|-4-------------2--------------------------|
E|-2-------------0--------------------------|

   D7M
E|-----2------------------------------------|
B|-----2-----5-5-5---2---5---2-2------------|
G|-----2-----2-2-2---2---2---2-2------------|
D|-0---------------0---0---0----------------|
A|------------------------------------------|
E|------------------------------------------|

   F#m           E5
E|------------------------------------------|
B|-----2-----------------------2------------|
G|---------2-4-------4-----2h4---6p4p2------|
D|-4-----4-------2-------2------------------|
A|-4-------------2--------------------------|
E|-2-------------0--------------------------|

   D7M
E|-----2-----2-2-2---2-2-2---2-2-2----------|
B|-----2-----2-2-2---2-2-2---2-2-2----------|
G|-----2-----2-2-2---2-2-2---2-2-2----------|
D|-0----------------------------------------|
A|------------------------------------------|
E|------------------------------------------|

   F#m           E5
E|------------------------------------------|
B|-----2-----------------------2------------|
G|---------2-4-------4-----2h4---6p4p2------|
D|-4-----4-------2-------2------------------|
A|-4-------------2--------------------------|
E|-2-------------0--------------------------|

   D7M
E|-----2------------------------------------|
B|-----2-----5-5-5---2---5---2-2------------|
G|-----2-----2-2-2---2---2---2-2------------|
D|-0---------------0---0---0----------------|
A|------------------------------------------|
E|------------------------------------------|

   F#m           E5
E|------------------------------------------|
B|-----2-----------------------2------------|
G|---------2-4-------4-----2h4--------------|
D|-4-----4-------2-------2------------------|
A|------------------------------------------|
E|------------------------------------------|

   D7M
E|-2----------------------------------------|
B|-2----------------------------------------|
G|-2----------------------------------------|
D|-0----------------------------------------|
A|------------------------------------------|
E|------------------------------------------|

        F#m
Nossas vidas, nossos sonhos 
      E5          D7M
Têm o    mesmo valor
        F#m
Nossas vidas, nossos sonhos 
      E5
Têm o    mesmo valor
    D7M                           F#m
Eu vou com você pra onde você for
                    E5
Eu descobri que é azul 
            D7M                 F#m
A cor da parede da casa de Deus
               E5                    D7M
E não há mais ninguém como você e eu
Acordes para:

    0 comentários

    mostrar mais comentários

    Conseguiu tocar?

    147 tocaram 8 ainda não

    Grave um vídeo tocando Lugar Ao Sol e mande pra gente!

    00:00 / 00:00
    outros vídeos desta música
    repetir qualidade Automático
    Outros vídeos desta música
    00:00 / 00:00
    Automático
    Capítulos
    • Início
    • Dicas e notas para a introdução
    • Tocando a introdução
    • Ensinando o dedilhado da intro (parte 1)
    • Ensinando o dedilhado da intro (parte 2)
    • Acordes da primeira parte
    • Tocando a primeira parte
    • Ensinando o ritmo da primeira parte
    • Acordes do refrão
    • Tocando o refrão
    • Ensinando o ritmo do refrão
    • Acordes da segunda parte
    • Tocando a segunda parte
    • Ensinando o ritmo da segunda parte
    • Encerramento
    OK