Cifra Club

Lugar Ao Sol

Charlie Brown Jr.

Cifra: Principal
exibições 1.782.404
Tom: A#
Intro:
1ª parte:
E|--------------------------|--3-----6--3-------3--|
B|---3-----------------3----|----3-6------6-3-6----|
G|-------3-5---5---3-5------|----------------------|
D|-5---5-----3---3----------|----------------------|
A|------------------------6-|----------------------|
E|--------------------------|----------------------|

2ª parte:                                  (abafado)
E|-------------------------|-~-------------------|
B|---3-----------------3---|-3-------------------|
G|-------3-5---5---3-5-----|-3-------------------|
D|-5---5-----3---3---------|-1-------------------|
A|-------------------------|---------------------|
E|-------------------------|---------------------|

E|-------------------------|--------------------|
B|---3---------------------|--------------------|
G|-------3-5---5---3-5-7---|-777-10-710-710-----|
D|-5---5-----3---3---------|-888--8-8-8-8-8-----|
A|-5---5-----3---3---------|-666--6-6-6-6-6-----|
E|-3---3-----1---1---------|--------------------|

Gm                       F
  Que bom viver, como é bom sonhar
           Eb7+
E o que ficou pra trás passou e eu não me
       Gm                F
Importei     foi ate melhor
            Eb7+
Tive que pensar em algo novo que eu fizesse sentido
      Gm                        F
Ainda vejo o mundo com os olhos de criança
        Eb7+
Que só quer brincar e não tanta "responsa"
      Gm
Mas a vida cobra sério
      F                  Eb7+
E realmente não dá pra fugir

          Eb
E|-----6-------------------|
B|-----6--8~---------------|
G|-----8----7~-------------|
D|-----8------8~-----------|
A|-----6-------------------|
E|-------------------------|

Refrão 2x:
 Bb7+                F
mas livre pra poder sorrir (sim)
Gm                 Eb
livre pra poder buscar
        Bb7+    F  Ebm7
o meu lugar ao sol

E|-----1~-----------------1~--------66666------|
B|-----1~-----------------1~--------77777------|
G|-333-2~-------------333-2~---8888888888------|
D|-333-3~-55555-88888-333-3~---8888888888------|
A|-111-1~-55555-66666-111-1~---6666666666------|
E|--------33333--------------------------------|

E|-------------------------|--------------------|
B|---3---------------------|--------------------|
G|-------3-5---5---3-5-7---|-777-10-710-710-----|
D|-5---5-----3---3---------|-888--8-8-8-8-8-----|
A|-5---5-----3---3---------|-666--6-6-6-6-6-----|
E|-3---3-----1---1---------|--------------------|

Gm                    F
  Um dia eu espero te reencontrar
      Eb7+
Numa bem melhor, cada um tem seu caminho
   Gm                 F
Eu sei que foi até melhor
          Eb7+
Irmãos do mesmo cristo, quero e não desisto
     Gm
Caro pai como é bom
          F                      Eb7+
Ter com o que se orgulhar a vida pode passar,

Não estou sozinho
    Gm
Eu sei se eu tiver fé
          F         Eb7+
Eu volto até sonhar

         Eb
E|-----6----------10~------|
B|-----6--8~------11~------|
G|-----8----7~-----8~------|
D|-----8------8~-----------|
A|-----6-------------------|
E|-------------------------|

Refrão 2x:
 Bb7+                F
Mas livre pra poder sorrir (sim)
Gm                 Eb
livre pra poder buscar
        Bb7+    F  Ebm7
o meu lugar ao sol

E|-----1~-----------------1~--------66666------|
B|-----1~-----------------1~--------77777------|
G|-333-2~-------------333-2~---8888888888------|
D|-333-3~-55555-88888-333-3~---8888888888------|
A|-111-1~-55555-66666-111-1~---6666666666------|
E|--------33333--------------------------------|

E|-------------------------|--------------------|
B|---3---------------------|--------------------|
G|-------3-5---5---3-5-7---|-777-10-710-710-----|
D|-5---5-----3---3---------|-888--8-8-8-8-8-----|
A|-5---5-----3---3---------|-666--6-6-6-6-6-----|
E|-3---3-----1---1---------|--------------------|

   Gm      F
O amor é assim
    Eb
É a paz de deus em sua casa
   Gm      F
O amor é assim
  Eb
A paz de deus que nunca acaba
   Gm      F
O amor é assim
    Eb
É a paz de deus em sua casa

O amor é assim
É a paz de Deus que  (2ª parte da intro)
... nunca acaba!!!

1ª guitarra 3x:
E|-------------------------------|
B|-------------------------------|
G|--5-5-5-5-5-8-8-8-8-8-8-8------|
D|--5-5-5-5-5-8-8-8-8-8-8-8------|
A|--3-3-3-0-3-6-6-6-6-6-6-6------|
E|-------------------------------|

2ª guitarra 2x:
E|-------------------------|
B|-1313-13--8--------------|
G|--x-x--x--x--------------|
D|-1010-10--5--------------|
A|-------------------------|
E|-------------------------|

2ª guitarra:
E|---------------------------|
B|-13-11-13-13-13-15-13-11-7-|
G|--x--x--x--x--x--x--x--x-x-|
D|-10--8-10-10-10-12-10--8-5-|
A|---------------------------|
E|---------------------------|

E|----3-----------8-6-8-6...2ªguita-----|
B|----3---------------------------------|
G|----3---------------------------------|
D|--5-5---5-4-3--3-3-3-3----------------|
A|--5-5---5-4-3--3-3-3-3----------------|
E|--3-3---3-2-1--1-1-1-1----------------|

( Gm  F  Eb ) (guitarra 1)

(solo) (guitarra 2)

E|-10-13-10-13-10-13-10-13-10-13/15-15-15-15-15-15-13-|
B|----------------------------------------------------|
G|----------------------------------------------------|
D|----------------------------------------------------|
A|----------------------------------------------------|
E|----------------------------------------------------|

E|13-13-13-13-13-10-8-6-8-8/10--6--6------------------|
B|--------------------6-------------------------------|
G|--------------------7-10---7--10-7--0---------------|
D|--------------------8-8--8-8--8--8------------------|
A|--------------------6-6--6-6--6--6------------------|
E|----------------------------------------------------|

E|-------------------------|--------------------|
B|---3---------------------|--------------------|
G|-------3-5---5---3-5-7---|-777-10-710-710-----|
D|-5---5-----3---3---------|-888--8-8-8-8-8-----|
A|-5---5-----3---3---------|-666--6-6-6-6-6-----|
E|-3---3-----1---1---------|--------------------|

      Gm
Nossas vidas, nossos sonhos
      F           Eb7+
Têm o mesmo valor
       Gm
Nossas vidas, nossos sonhos
      F
Têm o mesmo valor...
      Eb7+
...eu vou com você para onde você for
Gm                    F
  eu descobri que é azul
           Eb7+
A cor da parede da casa de deus

(2ª parte da intro)

Gm                F                  Eb7+
  e não há mais ninguém como você e eu!!!
Acordes para:

    0 comentários

      mostrar mais comentários

      Conseguiu tocar?

      132tocaram4ainda não

      Grave um vídeo tocando Lugar Ao Sol e mande pra gente!

      00:00 / 00:00
      outros vídeos desta música
      repetirqualidadeautomática
      Outro vídeos desta música
        00:00 / 00:00
        automática
        Capítulos
        • Início
        • Dicas e notas para a introdução
        • Tocando a introdução
        • Ensinando o dedilhado da intro (parte 1)
        • Ensinando o dedilhado da intro (parte 2)
        • Acordes da primeira parte
        • Tocando a primeira parte
        • Ensinando o ritmo da primeira parte
        • Acordes do refrão
        • Tocando o refrão
        • Ensinando o ritmo do refrão
        • Acordes da segunda parte
        • Tocando a segunda parte
        • Ensinando o ritmo da segunda parte
        • Encerramento
        OK