Cifra Club

Aprenda

Lugar Ao Sol

Charlie Brown Jr.

Cifra: Versão 4 (violão e guitarra)
Quer fazer aulas de música com a gente? Responda essas perguntas
e nos ajude nesse projeto! →
tom: Bb (forma dos acordes no tom de B) Afinação: Eb Ab Db Gb Bb Eb
[Intro]

E|----------------------------------4-------7--4-----------4-|
B|---4-----------------------4--------4--7--------7--4--7----|
G|--------4--6----6----4--6----------------------------------|
D|-6---6-------4----4------------0---------------------------|
A|-----------------------------------------------------------|
E|-----------------------------------------------------------|

E|---------------------------------4-~~~~~~------------------|
B|---4-----------------------4-----4-~~-~~~~~~---------------|
G|--------4--6----6----4--6--------4-~~~~~~------------------|
D|-6---6-------4----4--------------0-~~~~~~------------------|
A|-----------------------------------------------------------|
E|-----------------------------------------------------------|

[Base]

      G#m             F#                   E7M
E|--4-4-4--4-4--------------------4-4-4-4-4-4--4-4-4-4-------|
B|--4-4-4--4-4------4-4-4-4-4-4---4-4-4-7-7-7--4-7-4-4-------|
G|--4-4-4--4-4--6---6-6-6-4-6-6---4-4-4-4-4-4--4-4-4-4-------|
D|--6-6-6----6------4-4-4-4-4-4---0-0-0-0-0-0--0-0-0-0-------|
A|--6-6-6----6------4-4-4-4-4-4------------------------------|
E|--4-4-4----4------0-0-0-0-0-0------------------------------|

G#m                   F#                   E7M
Que bom viver como é bom sonhar e o que ficou pra trás 
                         G#m             F#
Passou e eu não me importei foi ate melhor
              E7M                                                     
Tive que pensar em algo novo que eu fizesse sentido
       G#m                     F#                                          
Ainda vejo o mundo com os olhos de criança
        E7M                                       
Que só quer brincar e não tanta responsa
      G#m                      F#                
Mas a vida cobra sério e realmente não dá pra fugir

     E7M
E|--4--4----------------------------------------------------|
B|--4----4--------------------------------------------------|
G|--4------4------------------------------------------------|
D|--0-------------------------------------------------------|
A|----------------------------------------------------------|
E|----------------------------------------------------------|

[Refrão]

          B7M(9)         G#m         E            B7+/9
E|----------------0-------------------------------------0-----|
B|----------------0-------------------------------------0-----|
G|----------------8-------------------------------------8-----|
D|---9-9-9-9-9-9----8-8-8-8-8--9-9-9-9-9----9-9-9-9-9-9-------|
A|---9-9-9-9-9-9----6-6-6-6-6--7-7-7-7-7h9--9-9-9-9-9-9-------|
E|---7-7-7-7-7-7----4-4-4-4-4---------------7-7-7-7-7-7-------|

         E9    Em7                                              
E|--7-7-7-7-7-7-7-7-7-----------------------------------------|
B|--7-7-7-7-7-8-8-8-8-----------------------------------------|
G|--9-9-9-9-9-9-9-9-9-----------------------------------------|(2x)
D|--9-9-9-9-9-9-9-9-9-----------------------------------------|
A|--7-7-7-7-7-7-7-7-7-9-10-10---------------------------------|
E|------------------------------------------------------------|

  B7M(9)                   G#m                E 
Livre pra poder sorrir, livre pra poder buscar   
        B7M(9)       E9    Em7    
O meu lugar ao sol 

G#m                   F#             E7M 
Um dia eu espero te encontrar numa bem melhor
                          G#m                  F#    
Cada um tem seu caminho eu sei que foi até melhor
           E7M                                
Irmãos do mesmo cristo quero e não desisto
     G#m                       F#             
Caro pai como é bom ter com o que se orgulhar 
      E7M
A vida pode passar não estou sozinho
 G#m                            F#                    
Eu sei se eu tiver fé eu volto até sonhar

     E7M
E|--4--4---------16-------------------------------------------|
B|--4----4-------16-------------------------------------------|
G|--4------4-----16-------------------------------------------|
D|--0-------------0-------------------------------------------|
A|------------------------------------------------------------|
E|------------------------------------------------------------|

[Refrão]

            B7+/9                   G#m       E 
Livre pra poder sorrir, livre pra poder buscar   
        B7+/9       E9    Em7    
O meu lugar ao sol

  G#m         F#     E7M 
O amor é assim ,é a paz de Deus em sua casa
  G#m         F#     E7M
O amor é assim, é paz de Deus que nunca acaba
  G#m         F#     E7M 
O amor é assim ,é a paz de Deus em sua casa

O amor é assim ,é a paz de Deus que... nunca acaba!

E|-------------------------------4-4-4-4-4-4-4-4-4-----------|
B|---4-----------------------4---4-4-4-4-4-4-4-4-4-----------|
G|--------4--6----6----4--6------4-4-4-4-4-4-4-4-4-----------|
D|-6---6-------4----4------------0-0-0-0-0-0-0-0-0-----------|
A|-----------------------------------------------------------|
E|-----------------------------------------------------------|

[Solo]

E|-----------------------------------------------------------|
B|-----------------------------------------------------------|
G|-----------------------------------------------------------|
D|-6-6-6-6-6--9-9-9-9-9-9-9-9-9-6-6-6-6-6-9-9-9-9-9-9-9-9-9--|
A|-4-4-4-0-4--7-7-7-7-7-7-7-7-7-4-4-4-0-4-7-7-7-7-7-7-7-7-7--|
E|-----------------------------------------------------------|

E|--9-9-9-9/11-11\9-----------------0--~~--------------------|
B|--x-x-x-x-x--x--x-9-9-9-9---------0--~~--------------------|
G|--6-6-6-6/8--8\-6-x-x-x-x---------3--~~--------------------|
D|------------------6-6-6-6---6-6-5-4-~~~~-------------------|
A|----------------------------6-6-5-4--~~~~------------------|
E|----------------------------4-4-3-0-~~~~-------------------|

[Base]

      G#m             F#                   E7M
E|--4-4-4--4-4--------------------4-4-4-4-4-4--4-4-4-4-------|
B|--4-4-4--4-4------4-4-4-4-4-4---4-4-4-7-7-7--4-7-4-4-------|
G|--4-4-4--4-4--6---6-6-6-4-6-6---4-4-4-4-4-4--4-4-4-4-------|
D|--6-6-6----6------4-4-4-4-4-4---0-0-0-0-0-0--0-0-0-0-------|
A|--6-6-6----6------4-4-4-4-4-4------------------------------|
E|--4-4-4----4------0-0-0-0-0-0------------------------------|

            G#m                     F#            E7M
Nossas vidas, nossos sonhos têm o mesmo valor
E7M                                                                       
Eu vou com você para onde você for 
  G#m               F#            E7M
Eu descobri que é azul a cor da parede da casa de Deus  

E não há mais ninguém como você e eu!

E|---------------------------------4-~-----------------------|
B|---4-----------------------4-----4-~-----------------------|
G|--------4--6----6----4--6--------4-~-----------------------|
D|-6---6-------4----4--------------0-~-----------------------|
A|-----------------------------------------------------------|
E|-----------------------------------------------------------|
Composição de Chorão / Marcão
Colaboração e revisão:
  • joão giordano
90.298 exibições
  • Simplificar cifra
    • ½ Tom
    • A
    • Bb
    • B
    • C
    • Db
    • D
    • Eb
    • E
    • F
    • F#
    • G
    • Ab
  • Adicionar à lista

    0 comentários

    Ver todos os comentários

    Conseguiu tocar?

    3 Tocaram 1 Ainda não

    Grave um vídeo tocando Lugar Ao Sol e nos envie!

    00:00 / 00:00
    Outros vídeos desta música
    Repetir Qualidade Automático
    Outros vídeos desta música
    00:00 / 00:00
    Automático
    Capítulos
    • Tocando a Música
    • Apresentação / Equipamentos
    • Afinação
    • Acordes Introdução
    • Tocando Introdução
    • Ensinando Introdução
    • Acordes Primeira Parte
    • Tocando Primeira Parte
    • Ensinando Primeira Parte
    • Acordes Refrão
    • Tocando Primeiro Refrão
    • Ensinando Refrão
    • Acordes Ponte
    • Tocando Segunda Parte - Solo
    • Ensinando Ponte - Guitarra Base
    • Ensinando Ponte - Guitarra Solo
    • Ensinando Solo
    • Encerramento

    Cifra Club Pro

    Aproveite o Cifra Club com benefícios exclusivos e sem anúncios
    Cifra Club Pro
    Aproveite o Cifra Club com benefícios exclusivos e sem anúncios
    OK