Cifra Club

Aprenda

Lugar Ao Sol

Charlie Brown Jr.

Tab de baixo: Versão 3
G|-----13------11------9------9------9h11p9--6--------------------------------------------
D|--11-----11------11-----11-----11-----------------------------------------------------  3x  Riff 1
A|--------------------------------------------------------------------------------------
E|--------------------------------------------------------------------------------------

G|-----13------13------16-----16--------------------------------------------------------
D|-11------11------14-----14------------------------------------------------------------  2x Riff 2
A|--------------------------------------------------------------------------------------
E|-------------------------------------------------------------------------------------

G|-----13------13-----------9h11p9--6------13---------4---------------------------------
D|--11------11-----------14-------------11------------4---------------------------------     Riff 3
A|----------------------14----------------------------2---------------------------------
E|------------------12--------------------------4--5------------------------------------

G|-----13------13------16------16------16--18--18--21--20--18------16
D|--11------11------14------14------14--------------------------14---   Riff 4
A|-------------------------------------------------------------------     
E|-------------------------------------------------------------------

G|--------------13------13----------9h11p9--6------13--------4------
D|----------11------11----------14-------------11------------4------    
A|--14--14----------------------14---------------------------2------
E|--------------------------12-------------------------4--5---------

G|------13------13--16--16--13--13-----9-----9----------------------
D|--11------11----------------------7-----7-----7--8--9-------------    Refrão
A|------------------------------------------------------------------
E|------------------------------------------------------------------

G|------13------13--16--16--13--13--16--16--16--18--18--16--16------
D|--11------11------14--14--11--11--14--14--14--16--16--14--14------
A|------------------------------------------------------------------
E|------------------------------------------------------------------
Composição de Chorão / Marcão
Colaboração e revisão:
  • Matheus Kuster
1.255 exibições

0 comentários

Ver todos os comentários

Conseguiu tocar?

0 Tocaram 0 Ainda não

Grave um vídeo tocando Lugar Ao Sol e nos envie!

00:00 / 00:00
Outros vídeos desta música
Repetir Qualidade Automático
Outros vídeos desta música
00:00 / 00:00
Automático

Cifra Club Pro

Aproveite o Cifra Club com benefícios exclusivos e sem anúncios
Cifra Club Pro
Aproveite o Cifra Club com benefícios exclusivos e sem anúncios
OK