Cifra Club

Dona do Meu Pensamento

Charlie Brown Jr.

Cifra: Principal
exibições 290.691
Tom: C#
( G#5  B5  C#5  B5  C#5  E5  B5  C#5  B5  C#5 )

Riff 1:

E|-----------------------------------------------------------------|
B|-----------------------------------------------------------------|
G|---444-----------------------------------------------------------|
D|---444-6-------1h2h4--2-1-1--------------------------------------|
A|---222-6-----------------4-4------1-2-1----------1-2-4-2-1-------|
E|-------4--4-6----------------4--4-------4-2-4--4-----------2-4---|

E|-----------------------------------------------------------|
B|-----------------------------------------------------------|
G|-----------------------------------------------------------|
D|----------1h2h4--2-1---1-----------------------------------|
A|------4-6------------4---4-----1-2-1---------1-2-4-2-1-----|
E|----4----------------------4-4-------4-2-4-4-----------2---|

Riff 2:

E|--------------------------------------------------|
B|--------------------------------------------------|
G|---444------------466464--444-------------46646---|
D|---444--6xx6x6x6--466464--444--2xx2x2x2---46646---|
A|---222--6xx6x6x6--244242--222--2xx2x2x2---24424---|
E|--------4xx4x4x4---------------0xx0x0x0-----------|

E|--------------------------------------------------------|
B|--------------------------------------------------------|
G|---444------------46646--444------------46646--444------|
D|---444-6xxx6x6x6--46646--444--22222222--46646--444------|
A|---222-6xxx6x6x6--24424--222--22222222--24424--222--6---|
E|-------4xxx4x4x4--------------xxxxxxxx--------------4---|

Riff 3:

E|-----------------------------------------|
B|-----------------------------------------|
G|------------66x66x66----------44x44x44---|
D|---66x66x66-66x66x66-22x22x22-44x44x44---|
A|---66x66x66-44x44x44-22x22x22-22x22x22---|
E|---44x44x44----------00x00x00------------|

E|-----------------------------------------|
B|-----------------------------------------|
G|------------66x66x66----------44x44x44---|
D|---66x66x66-66x66x66-22x22x22-44x44x44---|
A|---66x66x66-44x44x44-22x22x22-22x22x22---|
E|---44x44x44----------00x00x00------------|

(solo 1 - Guitarra com efeito 'bolhas)
E|----------------------------------------------------------------------------------------------|
B|-------4/6-4---------------------------------------7/9-7-------------------------7------------|
G|-------------6--8----4--4/6-8---4-6-8------------(6)-----8--6---4-6/8--6---4-6-8---4^~~~\p0---|
D|---6----------------6----------6------6~~~~\p0--(6)-------------------------------------------|
A|----------------------------------------------------------------------------------------------|
E|----------------------------------------------------------------------------------------------|

(solo 2)
E|-------------------------------------------------|
B|--------------------------7-7/9-9/12-11^-7-7/9---|
G|-------6-8-----8-6------8------------------------|
D|---6h9-----6h9-----9--6--------------------------|
A|-------------------------------------------------|
E|-------------------------------------------------|

(riff 1 )
(riff 2 )

tempo ( dedilhado )
 Seremos donos do nosso amanhã
 Se estivermos unidos
 Em sintonia com os nossos sonhos
 Mesmo se não formos iguais, pois não somos iguais, eu

(riff 1 )
 Caminho no meio da multidão
 Eu me sinto a vontade
 Pois partilhamos noites, ruas e sonhos
 Como se fossemos iguais

(riff 3 )
 Pois Me faz tocar o céu ver você sorrir
 Vem lua vem, vem dançar pra mim
 Ninguém em seu lugar então deixa a noite seguir
 Bom poder Brindar que você está aqui

(riff 2 )
 Dona do meu pensamento, você nossa história (x2)

tempo ( dedilhado )
 Observados por dragões ferozes
 Lutamos pra sobreviver
 Pois precisamos realmente saber
 O real valor que a vida tem, eu

(riff 1 )
 Caminho no meio da multidão
 Eu me sinto a vontade
 Pois partilhamos noites, ruas e sonhos
 Como se fossemos iguais

(riff 3 )
 Pois Me faz tocar o céu ver você sorrir
 Vem lua vem, vem dançar pra mim
 Ninguém em seu lugar então deixa a noite seguir
 Bom poder Brindar que você está aqui

(solo 1 )
 Dona do meu pensamento, você nossa história (x2)

(solo 2 )

(riff 3 )
 Eu sempre vou te amar
 Eu sei que eu sempre vou te amar

(solo 1 )

(riff 2 )
 Dona do meu pensamento, você nossa história (x2)

(riff 1) ( G# )
Acordes para:
    Composição: Chorão / Thiago CastanhoColaboração e revisão:

    0 comentários

      mostrar mais comentários

      Conseguiu tocar?

      13tocaram3ainda não

      Grave um vídeo tocando Dona do Meu Pensamento e mande pra gente!

      00:00 / 00:00
      outros vídeos desta música
      repetirqualidadeautomática
      Outro vídeos desta música
        00:00 / 00:00
        automática
        OK