Cifra Club

Só Por Uma Noite

Charlie Brown Jr.

Cifra: Principal (violão e guitarra)
Selo Cifra Club: esta cifra foi revisada para atender aos critérios oficiais da nossa Equipe de Qualidade.
tom: E
[Riff Intro]

Parte 1 de 8

E|----------------------------------------------------|
B|----------------------------------------------------|
G|----------------------------------------------------|
D|-----2---4----------4-------------------------------|
A|-2h4---4-------2--2----------2---2--2--2-2--2-2-----|
E|------------0----------0-2h4---4--------------------|

Parte 2 de 8

E|----------------------------------------------------|
B|----------------------------------------------------|
G|----------------------------------------------------|
D|-----2---4----------4-------------------------------|
A|-2h4---4-------2--2----------2---2------------------|
E|------------0----------0-2h4---4--------------------|

Parte 3 de 8
   C#5             E5 
E|----------------------------------------------------|
B|----------------------------------------------------|
G|-8/9--9-9-9-8-4--4-4--4--x-x------------------------|
D|-------------------------x-x------------------------|
A|-6/7--7-7-7-6-2--2-2--2--x-x------------------------|
E|----------------------------------------------------|

Parte 4 de 8
   G#5         B5
E|----------------------------------------------------|
B|----------------------------------------------------|
G|-14/16\14-13-11--11/13\9----------------------------|
D|----------------------------------------------------|
A|-12/14\12-11-9---9-/11\7----------------------------|
E|----------------------------------------------------|

Parte 5 de 8
   C#5           E5 
E|----------------------------------------------------|
B|----------------------------------------------------|
G|-8/9--9-9-9-8-/11--9--8\----------------------------|
D|----------------------------------------------------|
A|-6/7--7-7-7-6-/9---7--6\----------------------------|
E|----------------------------------------------------|

Parte 6 de 8
   G#5              B5
E|---------7--------------7--------------7------------|
B|----------------------------------------------------|
G|-----9------9-8-9---9------9-8-9---9------9-8-9-----|
D|-7/9---9----------9---9----------9---9--------------|
A|----------------------------------------------------|
E|----------------------------------------------------|

Parte 7 de 8
   C#5           E5 
E|-----------------------------------19---------------|
B|-------17----16--17----------17---------------------|
G|-14/16----16--------16~--/16----16------------------|
D|----------------------------------------------------|
A|----------------------------------------------------|
E|----------------------------------------------------|

Parte 8 de 8
   G#5         A5    E5
E|----------------------------------------------------|
B|----------------------------------------------------|
G|-11/13\11\9--8/9\--4--4------4--4--4----------------|
D|----------------------------------------------------|
A|-9-/11\9-\7--6/7\--2--2--2-2-2--2--2--x-x-----------|
E|----------------------------------------------------|

Parte 8 de 8
   G#5         A5    E5
E|----------------------------------------------------|
B|----------------------------------------------------|
G|-11/13\11\9--8/9\--4--4------4--4--4----------------|
D|----------------------------------------------------|
A|-9-/11\9-\7--6/7\--2--2--2-2-2--2--2----------------|
E|----------------------------------------------------|

[Primeira Parte]

G#5        A5              E5
    Eu procurei em outros corpos encontrar você
G#5                 A5                E5
    Eu procurei um bom motivo pra não

Pra não falar
G#5              A5
    Procurei me manter afastado
       E5
Mas você me conhece eu faço tudo errado
G#5  A5     E5
    Tudo errado

[Pre-Refrão]

G#5         A5               E5
    Fim de semana, eu sei lá

Vou viajar
                             G#5
Vou me embalar, vou dar uma festa
                 A5
Eu vou tocar um puteiro
                E5
Eu vou te esquecer, nem que for

[Refrão]

         G#5     A5
Só por uma noite
         E5
Só por uma noite
         G#5     A5
Só por uma noite
         E5
Só por uma noite

[Ponte]

C#5           E5           C#5
    Mas só de ouvir a sua voz
       E5
Eu já me sinto bem
G#5                    B5
    Mas se é difícil pra você tudo bem
G#5              B5
    Muita gente se diverte com o que tem

C#5       E5           C#5
    Só de ouvir a sua voz
    E5
Já me sinto bem
G#5                    B5
    Mas se é difícil pra você tudo bem
G#5                 B5
    Quando a gente se diverte com o que tem
G#5  A5                    E5
        Se diverte com o que tem
         G#5   A5  E5
Só por uma noite

[Solo]

Parte 1 de 6
   C#5             E5 
E|----------------------------------------------------|
B|----------------------------------------------------|
G|-8/9--9-9-9-8-4--4-4--4--x-x------------------------|
D|-------------------------x-x------------------------|
A|-6/7--7-7-7-6-2--2-2--2--x-x------------------------|
E|----------------------------------------------------|

Parte 2 de 6
   G#5         B5
E|----------------------------------------------------|
B|----------------------------------------------------|
G|-14/16\14-13-11--11/13\9----------------------------|
D|----------------------------------------------------|
A|-12/14\12-11-9---9-/11\7----------------------------|
E|----------------------------------------------------|

Parte 3 de 6
   C#5           E5 
E|----------------------------------------------------|
B|----------------------------------------------------|
G|-8/9--9-9-9-8-/11--9--8\----------------------------|
D|----------------------------------------------------|
A|-6/7--7-7-7-6-/9---7--6\----------------------------|
E|----------------------------------------------------|

Parte 4 de 6
   G#5              B5
E|---------7--------------7--------------7------------|
B|----------------------------------------------------|
G|-----9------9-8-9---9------9-8-9---9------9-8-9-----|
D|-7/9---9----------9---9----------9---9--------------|
A|----------------------------------------------------|
E|----------------------------------------------------|

Parte 5 de 6
   C#5           E5 
E|-----------------------------------19---------------|
B|-------17----16--17----------17---------------------|
G|-14/16----16--------16~--/16----16------------------|
D|----------------------------------------------------|
A|----------------------------------------------------|
E|----------------------------------------------------|

Parte 6 de 6
   G#5         A5    E5
E|----------------------------------------------------|
B|----------------------------------------------------|
G|-11/13\11\9--8/9\--4--4------4--4--4----------------|
D|----------------------------------------------------|
A|-9-/11\9-\7--6/7\--2--2--2-2-2--2--2--x-x-----------|
E|----------------------------------------------------|

Parte 6 de 6 (Variação)
   G#5         A5    E5
E|----------------------------------------------------|
B|----------------------------------------------------|
G|-11/13\11\9--8/9\--4--4------4--4--4----------------|
D|----------------------------------------------------|
A|-9-/11\9-\7--6/7\--2--2--2-2-2--2--2----------------|
E|----------------------------------------------------|

[Segunda Parte]

G#5        A5            E5
    Eu procurei abrir os olhos e enxergar você
G#5                 A5                E5
    Eu procurei um bom motivo pra não

Pra não estar lá
G#5                 A5
    Eu Procurei me manter afastado
       E5
Mas você me conhece eu faço tudo errado
G#5  A5     E5
    Tudo errado

[Pré-Refrão]

G#5         A5               E5
    Fim de semana, eu sei lá

Vou viajar
                             G#5
Vou me embalar, vou dar uma festa
                 A5
Eu vou tocar um puteiro
                E5
Eu vou te esquecer, nem que for

[Refrão]

         G#5     A5
Só por uma noite
         E5
Só por uma noite
         G#5     A5
Só por uma noite
         E5
Só por uma noite

[Ponte]

C#5           E5           C#5
    Mas só de ouvir a sua voz
       E5
Eu já me sinto bem
G#5                    B5
    Mas se é difícil pra você tudo bem
G#5              B5
    Muita gente se diverte com o que tem

C#5       E5           C#5
    Só de ouvir a sua voz
    E5
Já me sinto bem
G#5                    B5
    Mas se é difícil pra você tudo bem
G#5                 B5
    Quando a gente se diverte com o que tem
C#5  E5                      G#5     B5
        Se diverte com o que     tem
         C#5     E5  G#5  B5
Só por uma noite

( C#5  E5  G#5  B5 )
( C#5  E5  G#5  B5 )

[Riff Final]

E|----------------------------------------------------|
B|-4h5-5---5h7-5~---------------7b9-b9r7-5-5~--5/7----|
G|-4---4---4---4-------4h6p4--------------------------|
D|-------6---------4-6-------6---------------------9\-|
A|----------------------------------------------------|
E|----------------------------------------------------|

E|----------------------------------------------------|
B|-4h5-5---5h7-7b9--7b9r\-----------------------------|
G|-4---4---4------------------------------------------|
D|-------6--------------------------------------------|
A|----------------------------------------------------|
E|----------------------------------------------------|

E|---------7--------------7--------------7------------|
B|----------------------------------------------------|
G|-----9------9-8-9---9------9-8-9-9---9----9-8-9-----|
D|-7/9---9----------9---9------------9----------------|
A|----------------------------------------------------|
E|----------------------------------------------------|

E|-----------------------------------19---------------|
B|-------17----16--17----------17---------------------|
G|-14/16----16--------16~--/16----16------------------|
D|----------------------------------------------------|
A|----------------------------------------------------|
E|----------------------------------------------------|
Outros vídeos desta música
    1.781.206 exibições
    • Simplificar cifra
      • ½ Tom
      • A
      • Bb
      • B
      • C
      • Db
      • D
      • Eb
      • E
      • F
      • F#
      • G
      • Ab
    • Adicionar à lista

    Afinação da cifra

    Afinador online

      0 comentários

      Ver todos os comentários

      Entre para o Cifra Club PRO

      Tenha acesso a benefícios exclusivos no App e no Site

      • Chega de anúncios

      • Badges exclusivas

      • Mais recursos no app do Afinador

      • Atendimento Prioritário

      • Aumente seu limite de lista

      • Ajude a produzir mais conteúdo

      Capítulos
      • Início
      • Tocando a Música
      • Tocando Riff Introdução
      • Ensinando Riff da Introdução
      • Acordes da Introdução
      • Tocando Introdução
      • Ensinando Introdução (Base)
      • Ensinando Riff da Introdução 2
      • Ensinando Riff da Introdução 3
      • Acordes da Primeira Estrofe
      • Ensinando Ritmo da Primeira Estrofe
      • Tocando Segunda Estrofe
      • Ensinando Ritmo da Segunda Estrofe
      • Tocando Primeiro Refrão
      • Ensinando Ritmo Refrão
      • Tocando Terceira Estrofe
      • Ensinando Ritmo da Terceira Estrofe
      • Tocando Repetição - Final
      • Ensinando Riff Final
      • Encerramento

      Cifra Club Pro

      Aproveite o Cifra Club com benefícios exclusivos e sem anúncios
      Cifra Club Pro
      Aproveite o Cifra Club com benefícios exclusivos e sem anúncios
      OK