Enviar cifraEntrar

Papo Reto

Charlie Brown Jr.

Cifra: Principal
exibições 944.880
Tom: F#
Intro 4x:

(Abafado)

E|---------------------------------------
B|---------------------------------------
G|---------------------------------------
D|--6-6-4-4-------3-4-4-4-3-4-4-0--------
A|--4-4-2-2-4-4-4-1-2-2-2-1-2-2-0--------
E|----------2-2-2------------------------


Otário eu vou te avisar, o teu intelecto é de mosca de bar

E|---------------------------------------
B|---------------------------------------
G|---------------6-6-4-4-4--3--4-4-4--3--
D|--4-4-4-4-4-4--6-6-4-4-4--3--4-4-4--3--
A|--4-4-4-4-4-4--4-4-2-2-2--1--2-2-2--1--
E|--2-2-2-2-2-2--------------------------


(final)

E|-------------------------------
B|-------------------------------
G|---------------------------4---
D|--4-4-4-4-4-4-4-4-4-4-4-4--4---
A|--4-4-4-4-4-4-4-4-4-4-4-4--2---
E|--2-2-2-2-2-2-2-2-2-2-2-2------



Verso 1:
F#                 C#                       D#m
Voce deixou ela de lado pra falar com seus amigos
           B              F#                    C#
sobre suas coisas chatas. Ela deu brecha eu me aproximei
       D#m                  B
porque eu me fortaleço é na sua falha
F#               C#                 D#m                   B
Ela estava ali sozinha querendo atenção e alguém pra conversar
F#                 C#                     D#m             B
Voce deixou ela de lado vai pagar pela mancada pode acreditar



Refrão:

F#     C#
Já era,
   D#m             B             F#               C#   D#m  B
eu vou fazer de um jeito que ela não vai esquecer
          F#  C#
Se for já era
   D#m             B             F#               C#   D#m  B
eu vou fazer de um jeito que ela não vai esquecer

Refrão:


E|--------------------------------------------------------------------
B|-----------------------------------------11----9----11----11-11/14--
G|-----666-888-444/3-----4-4-6-6-4-4-6-6------11---11----11-----------
D|-444-666-888-444/3-444-x-x-x-x-x-x-x-x------------------------------
A|-444-444-666-222/1-444-2-2/4-4-2-2/4-4------------------------------
E|-222---------------222----------------------------------------------


E|------------------------------------------
B|---------------------------7-7-7-7-7-7-7~-
G|-----666-888-444/3-----666-6-6-6-6-6-6-6~-
D|-444-666-888-444/3-444-666-4-4-4-4-4-4-4~-
A|-444-444-666-222/1-444-444----------------
E|-222---------------222--------------------


Otário eu vou te avisar, o teu intelecto é de cu e rola


E|-----------------------------
B|---------------------7---7---
G|---------------------6---6---
D|--4-4-4-4-4-4-4-4--4-4-4-4---
A|--4-4-4-4-4-4-4-4--4---4-----
E|--2-2-2-2-2-2-2-2--2---2-----



Verso 2:
F#                            C#
Voce falou pra ela que eu sou louco e canto mal,
           D#m                       B
que eu não presto que eu sou um marginal.
           F#                       C#
Que eu não tenho educação que eu só falo palavrão
    D#m                  B
E pra socialite eu não tenho vocação
F#                     C#          D#m                       B
Sei que isso tudo é verdade mas eu quero que se foda essa porra de sociedade
F#                         C#                    D#m                B
Pago minhas contas, sou limpinho, não sou como voce filho da puta viadinho então


(Refrão)


  (solo sobre F# )
E|---------------------------------------
B|---------------------------------------
G|---------------------------------------
D|-4~-4--4-4/3-4-4/3--4~-4--4-4/3-4-4/3--
A|-4~-4--2-2/1-2-2/1--4~-4--2-2/1-2-2/1--
E|-2~-2---------------2~-2---------------

 (com muita distorção efeito)...

Mexeu com a família...

E|---------------------------------------
B|---------------------------------------
G|---------------6-6-4-4-4--3--4-4-4--3--
D|--4-4-4-4-4-4--6-6-4-4-4--3--4-4-4--3--
A|--4-4-4-4-4-4--4-4-2-2-2--1--2-2-2--1--
E|--2-2-2-2-2-2--------------------------


(final do verso)

E|-----------------------------
B|---------------------7---7---
G|---------------------6---6---
D|--4-4-4-4-4-4-4-4--4-4-4-4---
A|--4-4-4-4-4-4-4-4--4---4-----
E|--2-2-2-2-2-2-2-2--2---2-----


(solo)

E|------------------------------------------------------------------------------9--
B|-11----11----11----11----11h9----9----12-11----11----11----11----11h9----9-------
G|----11----11----11----11------12---12-------11----11----11----11------12---12----
D|---------------------------------------------------------------------------------
A|---------------------------------------------------------------------------------
E|---------------------------------------------------------------------------------


E|----------------------------------------------
B|-11----9-11----9-11----12-11----12-11----9-11-
G|----11------11------11-------11-------11------
D|----------------------------------------------
A|----------------------------------------------
E|----------------------------------------------


E|------------------------------------------------------------------------------9--
B|-11----11----11----11----11h9----9----12-11----11----11----11----11h9----9-------
G|----11----11----11----11------12---12-------11----11----11----11------12---12----
D|---------------------------------------------------------------------------------
A|---------------------------------------------------------------------------------
E|---------------------------------------------------------------------------------


E|---------------------------------------
B|-11----9-11----9-11----12-11-----------
G|----11------11------11-------11--------
D|---------------------------------------
A|---------------------------------------
E|---------------------------------------



(verso 1)

(Refrão)


E|--------------------------(14)-----
B|--7--7--7--7--7--7--7--7------(14)-
G|--6--6--6--6--6--6--6--6-----------
D|--4--4--4--4--4--4--4--4-----------
A|-----------------------------------
E|------------------------------


Se não quiser ficar só cuide dela bem melhor

E|------------------------------------------------------
B|--11----9----11----11p12--11----9----11/14--11/14-----
G|-----11---11----11-----------11---11------------------
D|------------------------------------------------------
A|------------------------------------------------------
E|------------------------------------------------------


Ou vai ficar só o pó, ou vai ficar só o pó

E|-----------------------------------------------
B|--11----9----11----11p12--11----9----9/7-9/7---
G|-----11---11----11-----------11---11-----------
D|-----------------------------------------------
A|-----------------------------------------------
E|-----------------------------------------------


Ferro na boneca, pedrada na vidraça, tudo o que eu tenho eu conquistei na raça

E|--6-7-9--6-7-9--6-7-9--6-7-9--6-7-9-9/11-9~-7h9-9-6~-7~~-----
B|------------------------------------------------------------
G|------------------------------------------------------------
D|------------------------------------------------------------
A|------------------------------------------------------------
E|------------------------------------------------------------


Eu não sou simpático a ninguém, hoje eu vou de limosine mas eu já andei de trem

E|--6-7-9--6-7-9--6-7-9--6-7-9--6-7-9-9/11------------------------------
B|-----------------------------------------11~~-9~~-x-x-x-7~~-----------
G|--------------------------------------------------6-6-6-6~~-----------
D|--------------------------------------------------4-4-4-4~~-----------
A|--------------------------------------------------x-x-x-x~~-----------
E|----------------------------------------------------------------------


(tablatura para o primeiro e o segundo verso)

E|-----------------------------------------------------------------
B|-----------------------------------------------------------------
G|-----------------------------------------------------------------
D|------------------------------3-4-1-1-1-1-1-1-3-4----------------
A|--------------1-2-4-4-4-4-4-4---------------------2-2-2-2-2-2-1--
E|--2-2-2-2-2-2----------------------------------------------------


E|------------------------------------------------------------------
B|------------------------------------------------------6/-7-7------
G|------------------------------------------------------5/-6-6------
D|------------------------------3-4-1-1-1-1-1-1-1-3h4p3-3/-4-4------
A|--------------1-2-4-4-4-4-4-4-------------------------------------
E|--2-2-2-2-2-2-----------------------------------------------------


E|--------------------------------------------------------------------
B|------------------------------------------------------------2-------
G|----------------------------------------------1-3-4-4-4-4-4-3h4p3-1-
D|------------------------------3-4-1-1-1-1-1-1-----------------------
A|--------------1-2-4-4-4-4-4-4---------------------------------------
E|--2-2-2-2-2-2-------------------------------------------------------


E|--------------------------------------------------------------------
B|--------------------------------------------------6/-7-7-7-7-7------
G|----------------------------------------------1-3-5/-6-6-6-6-6------
D|------------------------------3-4-1-1-1-1-1-1-----3/-4-4-4-4-4------
A|--------------1-2-4-4-4-4-4-4---------------------------------------
E|--2-2-2-2-2-2-------------------------------------------------------
  • 1
  • 2
  • 3
  • 4
  • 5
  • 6
  • 7
  • 8
  • 9
  • 10
  • 11
  • 12
    Acordes para:

      0 comentários

        mostrar mais comentários

        Conseguiu tocar?

        62tocaram0ainda não

        Grave um vídeo tocando Papo Reto e mande pra gente!

        00:00 / 00:00
        outros vídeos desta música
        repetirqualidadeautomática
        • automática
        Outro vídeos desta música
          00:00 / 00:00
          automática
          • automática
          fecharplay/pause subir/descer velocidade
            acordes
            fechar
            OK
            Feedback