Cifra Club

Longe de Você

Charlie Brown Jr.

Cifra: Principal
exibições 1.622.895
Tom: G
Intro:
    B5       C5    G5(7M)      D5
E|------------------------------------------------------
B|----------------7-7-7-7-7-----------------------------
G|-4-4-x-x--5-5---7-7-7-7-7---7-7-7---------------------
D|-4-4-x-x--5-5---5-5-5-5-5---7-7-7---------------------
A|-2-2-x-x--3-3---------------5-5-5---------------------
E|------------------------------------------------------
   ↓ ↓ ↓ ↑  ↓ ↓   ↓ ↑ ↓ ↑ ↓   ↓ ↑ ↓
    E5          B5      D5      F#5 G5
E|------------------------------------------------------
B|------------------------------------------------------
G|-9-9-9-9-9---4-4-4---7-7-x----------------------------
D|-9-9-9-9-9---4-4-4---7-7-x---4-4-5-5------------------
A|-7-7-7-7-7---2-2-2---5-5-x---4-4-5-5------------------
E|-----------------------------2-2-3-3------------------
   ↓ ↑ ↑ ↓ ↑   ↓ ↑ ↓   ↓ ↑ ↓   ↓ ↓ ↓ ↓

Primeira parte:

 B5       C5            G5         D5
Longe de você eu enlouqueço muito mais
    E5             B5                    D5     F#5  G5
Eu vivo na espera de poder viver a vida com você
B5         C5         G5                     D5
  Vejo pessoas sem saberem pra onde o mundo vai
    E5                    B5        D5  F#5  G5
Eu conto as horas para estar com você
 B5       C5         G5           D5
Longe de você eu preciso de algo mais
    E5             B5                    D5     F#5  G5
Eu vivo na espera de poder viver a vida com você
B5         C5         G5                     D5
  Vejo pessoas sem saberem pra onde o mundo vai
    E5                    B5        D5  F#5  G5
Eu conto as horas para estar com você

Primeira parte:

    B5      C5      G5(7M)      D5
E|------------------------------------------------------
B|-----------------7-7-7-7-7----------------------------
G|-4-4-x---5-5-5---7-7-7-7-7---7-7-7--------------------
D|-4-4-x---5-5-5---5-5-5-5-5---7-7-7--------------------
A|-2-2-x---3-3-3---------------5-5-5--------------------
E|------------------------------------------------------
   ↓ ↑ ↓   ↓ ↑ ↓   ↓ ↑ ↓ ↑ ↓   ↓ ↑ ↓
    E5          B5      D5      F#5 G5
E|------------------------------------------------------
B|------------------------------------------------------
G|-9-9-9-9-9---4-4-4---7-7-x----------------------------
D|-9-9-9-9-9---4-4-4---7-7-x---4-4-5-5------------------
A|-7-7-7-7-7---2-2-2---5-5-x---4-4-5-5------------------
E|-----------------------------2-2-3-3------------------
   ↓ ↑ ↑ ↓ ↑   ↓ ↑ ↓   ↓ ↑ ↓   ↓ ↓ ↓ ↓

Refrão:

E5                          C7M
  Que mundo é esse que ninguém entende um sonho?
E5                          C7M
  Que mundo é esse que ninguém sabe mais amar?
E5                         C7M
  Pra tanta coisa que faz mal eu me disponho
E5                        C7M
  Quando eu te vejo eu começo a sorrir
E5      C7M
  Eu começo a sorrir

( E5  C7M )

Solo 1: Em  D  E4  A/E

    Em                  D
E|-----------------------------------------------------
B|-8-8-8-8-8-8-8/10-8--7--7-7-7---7-7-7-7---7-7-7------
G|-----------------------------------------------------
D|-----------------------------------------------------
A|-7-7-7-7-7-7-7----7--5--5-5-5---5-5-5-5---5-5-5------
E|-----------------------------------------------------
   ↓ ↓ ↓ ↑ ↓ ↑ ↓    ↓  ↓  ↑ ↓ ↓   ↑ ↓ ↑ ↓   ↑ ↓ ↑
    E4                        A/E
E|----------------------------9--9--9--9---------------
B|-10-10-10-10-10-10-10-10---10-10-10-10---------------
G|-----------------------------------------------------
D|-----------------------------------------------------
A|--7--7--7--7--7--7--7--7----7--7--7--7---------------
E|-----------------------------------------------------
    ↓  ↓  ↑  ↓  ↑  ↓  ↓  ↑    ↓  ↑  ↓  ↓
     A/E
E|--9--9--9--9----9--9---9-----------------------------
B|-10-10-10-10---10-10-10------------------------------
G|-----------------------------------------------------
D|-----------------------------------------------------
A|--7--7--7--7----7--7--7------------------------------
E|-----------------------------------------------------
    ↑  ↓  ↑  ↓    ↑  ↓  ↑

Solo 2:  Em7  D6(9)  C6(9) A5

    Em7                   D6(9)
E|-10-10-10-10-10-10-10--7-7-7-7---7-7-7-7---7-7-7-----
B|--8--8--8--8--8--7--8--5-5-5-5---5-5-5-5---5-5-5-----
G|-----------------------------------------------------
D|-----------------------------------------------------
A|--7--7--7--7--7--7--7--5-5-5-5---5-5-5-5---5-5-5-----
E|-----------------------------------------------------
    ↓  ↓  ↑  ↓  ↑  ↓  ↓  ↓ ↑ ↓ ↓   ↑ ↓ ↑ ↓   ↑ ↓ ↑
    C6(9)            A5
E|-5--5-5-5-5-5-5-5----------------------
B|-3--3-3-3-3-3-3-3----------------------
G|-------------------2---2--2--2---------
D|-------------------2---2--2--2---------
A|-3--3-3-3-3-3-3-5--0---0--0--0---------
E|---------------------------------------
   ↓  ↓ ↓  ↑ ↓ ↑ ↓ ↓  ↓   ↑  ↓  ↓
    A5
E|-----------------------------------------------------
B|-----------------------------------------------------
G|-2--2--2--2---2-2-2-2--------------------------------
D|-2--2--2--2---2-2-2-2--------------------------------
A|-0--0--0--0---0-0-0-0--------------------------------
E|-----------------------------------------------------
   ↑  ↓  ↑  ↓   ↑  ↓  ↑

( B5  C5  G5(7M)  D5  E5  B5  D5  F#5  G5 )

Primeira parte - com variação na letra:
B5              C5          G5                 D5
  Não quero disperdiçar a chance de ter encontrado você
 E5                      B5              D5  F#5  G5
Hoje o que eu mais quero é fazer você feliz
B5            C5                    G5          D5
  Vejo as pessoas e sei que juntos nós podemos muito mais
    E5                B5                 D5      F#5 G5
Eu vivo na espera de poder viver a vida com você

Refrão:

E5                          C7M
  Que mundo é esse que ninguém entende um sonho?
E5                          C7M
  Que mundo é esse que ninguém sabe mais amar?
E5                         C7M
  Pra tanta coisa que faz mal eu me disponho
E5                        C7M
  Quando eu te vejo eu começo a sorrir
E5      C7M
  Eu começo a sorrir

( E5  C7M )

Solo:

    Em                  D
E|-----------------------------------------------------
B|-8-8-8-8-8-8-8/10-8--7--7-7-7---7-7-7-7---7-7-7------
G|-----------------------------------------------------
D|-----------------------------------------------------
A|-7-7-7-7-7-7-7----7--5--5-5-5---5-5-5-5---5-5-5------
E|-----------------------------------------------------
   ↓ ↓ ↓ ↑ ↓ ↑ ↓    ↓  ↓  ↑ ↓ ↓   ↑ ↓ ↑ ↓   ↑ ↓ ↑
    E4                        A/E
E|---------------------------9--9--9--9----------------
B|-10-10-10-10-10-10-10-10---10-10-10-10---------------
G|-----------------------------------------------------
D|-----------------------------------------------------
A|-7--7--7--7--7--7--7--7----7--7--7--7----------------
E|-----------------------------------------------------
   ↓  ↓  ↑  ↓  ↑  ↓  ↓  ↑    ↓  ↑  ↓  ↓
E|-9--9--9--9----9--9---9------------------------------
B|-10-10-10-10---10-10-10------------------------------
G|-----------------------------------------------------
D|-----------------------------------------------------
A|-7--7--7--7----7--7--7-------------------------------
E|-----------------------------------------------------
   ↑  ↓  ↑  ↓    ↑  ↓  ↑

(Base solo 2)

    Em7                            D6(9)
Molduras boas não salvam quadros ruins
         C6(9)                                  A5
Eu procurei a vida inteira sem saber bem pelo que

(Base solo 1)

                   Em               D
Mas se pelo menos você estivesse aqui
             E4                      A/E
Eu conto as horas pra estar com você

(Base solo 2)
           Em7          D6(9)
Eu estive lá na sua presença
          C6(9)          A5
Só pra saber o que você diria sobre nós

(Intro 2x)

B5  C5     G5    D5      E5  B5  D5  F#5  G5
       O que te diz mais?  (2x)
Acordes para:

    0 comentários

      mostrar mais comentários

      Conseguiu tocar?

      311tocaram3ainda não

      Grave um vídeo tocando Longe de Você e mande pra gente!

      00:00 / 00:00
      outros vídeos desta música
      repetirqualidadeautomática
      Outro vídeos desta música
        00:00 / 00:00
        automática
        Capítulos
        • Início
        • Tocando a música
        • Acordes da introdução e primeira parte
        • Tocando intro e primeira parte
        • Ensinando ritmo da introdução
        • Ensinando ritmo da primeira parte
        • Acordes do refrão
        • Tocando refrão
        • Ensinando ritmo do refrão
        • Acordes do Solo
        • Tocando solo + trecho repetição
        • Ensinando Solo (Parte 1)
        • Ensinando Solo (Parte 2)
        • Ensinando Solo (Parte 3 e 4)
        • Tocando Solo (tablatura)
        • Ensinando Solo 2 (Parte 1)
        • Ensinando Solo 2 (Parte 2)
        • Ensinando Solo 2 (Parte 3 e 4)
        • Tocando Solo 2 (tablatura)
        • Encerramento
        OK